Oops, an error
Loading. Please wait.

Take Me With You intro tab

version 1
version 1

Intro

Whole song

Interactive

32,769 views 1 this week
2 commentsread comments
1 2 3 4 5
x 3
add to favorites
×
Save as Personal and add changes to this tab that will be seen only by you. Learn more ›
×
You can save this tab as Personal to edit and correct it or add notes. All changes will be seen only by you. Learn more »
launch autoscroll
font size
0
reset
how to read this tab
guitar tuner
edit
Autoscroll
slow
fast
+/-
esc
set tempo
stop
Author
Difficulty
I got it as close as i could...i'm pretty sure it's 100% right...my e-mail is 
if you have any problems.

----------------------------------------------------------------------------
                Take Me With You Intro-Secondhand Sernade
----------------------------------------------------------------------------
Tabbed by: Gx5cpx3
Email: Gx5cpx@aim.com

Tuning: one half step down...ie(D#,G#,C#,F#,A#,D#)

Intro:

e|-----------0---------------0-----------------0---------------0------------|
B|-------0----0---0------0----0---0--------0----0---0------0----0----0------|
G|--------------------------------------------------------------------------|
D|-----2---2----2------2---2----2--------2---2----2-------2---2----2--------|
A|-2-----------------0-----------------4----------------2-------------------|
E|---0----------------------------------------------------------------------|

e|-----------0---------------0----------0-----------------------------------|
B|-------0----0---0-----------0-----0----0---0------------------------------|
G|--------------------------------------------------------------------------|
D|-----2---2----2-----------------2---2----2--------------------------------|
A|-------------------0----------4---------------2---------------------------|
E|---0----------------------------------------------------------------------|

            
            
Suggest correction
Creating personal tab
Creating personal tab
You can edit any tab online and save it as your Personal.

You can edit, replace or remove any tab part or add personal notes – all changes will be seen only by you.

Personal tabs can be accessed anytime from any device, even offline.
Learn more »
Give kudos to tab author, rate the tab!
1 2 3 4 5
comments
print report bad tab
2 comments total.
0 reply
drummer4576 31 Jul 11, 2007 12:04 PM

good. the only thing is he goes up to the 2nd fret on the high e string on the 4th chord in the sequence

0 reply
JenFerRyr 10 Jan 24, 2009 10:41 AM

thanx! it sounds exactly like the intro to take me with you! :D

guest
You may want to rate the tab now too:
select rating
Wanna post a correction for this tab? Suggest correction