Oops, an error
Loading. Please wait.
We have Chord Pro version of Your Call.
It's the closest thing you can get to the original song and it has interactive parts. Check out the tab »
×
139,535 views 144 this week
no commentswrite comment
1 2 3 4 5
x 20
add to favorites
×
Save as Personal and add changes to this tab that will be seen only by you. Learn more ›
×
You can save this tab as Personal to edit and correct it or add notes. All changes will be seen only by you. Learn more »
launch autoscroll
font size
0
reset
transpose
0
reset
display chords
guitar tuner
edit
Autoscroll
slow
fast
+/-
esc
set tempo
stop
Author
Difficulty
Strumming
There is no strumming pattern for this song yet. and get +5 IQ
Song: Secondhand Serenade - Your Call

  -  G   -   C  -   D  -  Em  -  Em  -
e|-3----|------|------|------|------|
B|------|-3----|-5----|-7----|-7----|
G|--0-0-|--0-0-|--4-4-|--5-5-|--5-0-|
D|---0--|---0--|---0--|---0--|---0--|
A|------|------|------|------|------|
E|------|------|------|------|------|

[Intro]
    C  D  G  D  D  F# G  F# Em G  G  G  Em G  G  D
e|------------------------------------------------|
B|------------------------------------------------|
G|-------0-----------0-----------0-----------0----|
D|----0-----0-----4-----4-----5-----5-----5-----0-|
A|-3-----------5-----------7-----------7----------|
E|------------------------------------------------|
  \________________________X2_____________________/

[Verse 1]
C           D                 Em
 Waiting for your, Call i'm sick, Call i'm angry,
          C                  D
Call i'm desperate for your voice.
      Em                           C
Listening, To the song we used to sing,
        D             Em
In the car, Do you remember?
                    C
Butterfly, Early summer,
        D         Em                           C
- Em
It's playing on repeat, Just like when we would meet...
                  C     D - Em
Like when we would meet...

[Chorus]
    G D G D G D G D D F#G F#D F#G F#EmG G G EmG G D C D G D C D G D
e|-----------------------------------------------------------------|
B|-----------------------------------------------------------------|
G|-----0-------0-------0-------0-------0-------0-------0-------0---|
D|---0---0---0---0---4---4---4---4---5---5---5---0---0---0---0---0-|
A|-----------------5-------5-------7-------7-------3-------3-------|
E|-3-------3-------------------------------------------------------|
  \_______________________________X2_______________________________/

Play this in the end of the Chorus (When he sings: To make you mine stay eith me tonight)
    C  D  G  D  C  D  G  D  C  D  G  D  C
e|---------------------------------------|
B|---------------------------------------|
G|-------0-----------0-----------0-------|
D|----0-----0-----0-----0-----0-----0----|
A|-3-----------3-----------3-----------3-|
E|---------------------------------------|

      G    D                Em     C
I was born, To tell you i love you...
         G    D              Em           C
And i am torn, To do what i have to...To make you mine,
 (C)
Stay with me tonight...

[Verse 2]
C                 D           Em
 Stripped and pollished, I am new, I am fresh,
        C          D               Em
I am feeling so ambitious, You and me, Flesh to flesh,
              C                   D
Cause every breath that you will take,
               Em
When you are sitting next to me!
             C             D           Em
Will bring life into my deepest hopes! What's your fantasy?
         C              D            Em
- D - Em
What's your...(what's your...what's your...) What's your...

[Chorus]
      G    D                Em     C
I was born, To tell you i love you...
         G    D              Em           C
And i am torn, To do what i have to...To make you mine,
 (C)
Stay with me tonight...

[Breakdown]
    Em G  G  G  D  F# G  D  C  D  G  F# D  F# G
e|------------------------------------------------|
B|------------------------------------------------|
G|-------0-----------0-----------0-----------0----|
D|----5-----5-----4-----0-----0-----4-----4-----0-|
A|-7-----------5-----------3-----------5----------|
E|------------------------------------------------|
  \______________________X4_______________________/

        Em      D     C          D
        D                 C
And I'm, Tired...Of being all alone, And this aolitary moments makes me 
                   D
want to come back home. X4

(I know, Everything you whanted isn't anything you have...) X2

[Chorus]
      G    D                Em     C
I was born, To tell you i love you...
         G    D              Em     C
And i am torn, To do what i have to...
        (I know, Everything you whanted isn't anything you have...)
      G      D                Em     C
I was born... To tell you i love you...
           (I know, Everything you whanted isn't anything you have...)
         G      D              Em
And i am torn... To do what i have to...
    C              C
To make you mine, Stay with me tonight...

            
            
Suggest correction
Creating personal tab
Creating personal tab
You can edit any tab online and save it as your Personal.

You can edit, replace or remove any tab part or add personal notes – all changes will be seen only by you.

Personal tabs can be accessed anytime from any device, even offline.
Learn more »
comments
print report bad tab
guest
You may want to rate the tab now too:
select rating
Wanna post a correction for this tab? Suggest correction