Oops, an error
Loading. Please wait.

Anchors tab

version 1
version 1

Whole song

Interactive

6,631 views 3 this week
5 commentsread comments
1 2 3 4 5
2 more votes to show rating
add to favorites
×
Save as Personal and add changes to this tab that will be seen only by you. Learn more ›
×
You can save this tab as Personal to edit and correct it or add notes. All changes will be seen only by you. Learn more »
launch autoscroll
font size
0
reset
how to read this tab
guitar tuner
edit
Autoscroll
slow
fast
+/-
esc
set tempo
stop
Author
 Anchors                                     


                                                              Secret And Whisper
Track 1



     PM PM PM           PM                     PM PM PM           PM     
     S  S  E  Q    Q    E  E     E  Q    E     S  S  E  Q    Q    E  E   
D||---------------------------|-------------|---------------------------|
A||---------------------------|-------------|---------------------------|
F||-----------5----5-------5--|--L--5----L--|-----------5----5----------|
C||-----------7----7-------7--|--L--7----L--|-----------7----7-------5--|
G||--0--0--0------------0-----|-------------|--0--0--0------------0--3--|
C||---------------------------|-------------|------------------------3--|


  W                   H.           E  E     E  E  E  E  E  E  E  E   
-------------------|---------------------|--------------------------|
-------------------|---------------------|--------------------------|
-------------------|------------------4--|--L--5--5-----5--4--4--4--|
--L----------------|--L------------L--5--|--L--7--7-----7--5--5--5--|
--L----------------|--L------------L-----|--------------------------|
--L----------------|--L------------L-----|--------------------------|


  E  E  E  E  E  E  E  E     E  E  E  E  E  E  E  E   
--------------------------|--------------------------|
--------------------------|--------------------------|
--L--5--5-----5--4--4--4--|--L--5--5-----5--4--4--4--|
--L--7--7-----7--5--5--5--|--L--7--7-----7--5--5--5--|
--------------------------|--------------------------|
--------------------------|--------------------------|


  E  E  E  E  E  E  E  E     E  E  Q    E  E  Q       E  E  Q    E  E  E  E   
--------------------------|------------------------|-------------------------|
--------------------------|------------------------|-------------------------|
--L--5--5-----5--4--4-----|------------------------|-------------------------|
--L--7--7-----7--5--5--5--|--L--5--5----5--5--5----|--5--5--5----5--5-----5--|
-----------------------3--|--L--3--3----3--3--3----|--3--3--3----3--3-----5--|
-----------------------3--|--L--3--3----3--3--3----|--3--3--3----3--3-----5--|


  E  E  Q    E  E  Q       E  E  Q    E  E  E  E     E  E  E  E  E  E  E  E   
------------------------|-------------------------|--------------------------|
------------------------|-------------------------|--------------------------|
------------------------|----------------------4--|--L--5--5-----5--4--4--4--|
--L--5--5----5--5--5----|--5--5--5----5--5--5--5--|--L--7--7-----7--5--5--5--|
--L--5--5----5--5--5----|--5--5--5----5--5--5-----|--------------------------|
--L--5--5----5--5--5----|--5--5--5----5--5--5-----|--------------------------|


  E  E  E  E  E  E  E  E     E  E  E  E  E  E  E  E   
--------------------------|--------------------------|
--------------------------|--------------------------|
--L--5--5-----5--4--4--4--|--L--5--5-----5--4--4--4--|
--L--7--7-----7--5--5--5--|--L--7--7-----7--5--5--5--|
--------------------------|--------------------------|
--------------------------|--------------------------|


  E  E  E  E  E  E  E  E     E  E  Q    E  E  Q       E  E  Q    E  E  E  E   
--------------------------|------------------------|-------------------------|
--------------------------|------------------------|-------------------------|
--L--5--5-----5--4--4-----|------------------------|-------------------------|
--L--7--7-----7--5--5--5--|--L--5--5----5--5--5----|--5--5--5----5--5-----5--|
-----------------------3--|--L--3--3----3--3--3----|--3--3--3----3--3-----5--|
-----------------------3--|--L--3--3----3--3--3----|--3--3--3----3--3-----5--|


                                                       PM PM PM PM PM PM PM PM  
  E  E  Q    E  E  Q       E  E  Q    E  E  E  E       E  E  E  E  E  E  E  E   
------------------------|-------------------------||---------------------------|
------------------------|-------------------------||---------------------------|
------------------------|-------------------------||*--------------------------|
--L--5--5----5--5--5----|--5--5--5----5--5--5--5--||*--3--3--3--3--3--3--3--3--|
--L--5--5----5--5--5----|--5--5--5----5--5--5--5--||---3--3--3--3--3--3--3--3--|
--L--5--5----5--5--5----|--5--5--5----5--5--5--5--||---3--3--3--3--3--3--3--3--|


  PM PM PM PM PM PM PM PM    PM PM PM PM PM PM PM PM  
  E  E  E  E  E  E  E  E     E  E  E  E  E  E  E  E   
--------------------------|--------------------------|
--------------------------|--------------------------|
--------------------------|--------------------------|
--3--3--3--3--3--3--3--3--|--3--3--3--3--3--3--3--3--|
--3--3--3--3--3--3--3--3--|--3--3--3--3--3--3--3--3--|
--3--3--3--3--3--3--3--3--|--3--3--3--3--3--3--3--3--|


  PM PM PM PM PM PM PM PM    PM PM PM PM PM PM PM PM  
  E  E  E  E  E  E  E  E     E  E  E  E  E  E  E  E   
--------------------------|--------------------------|
--------------------------|--------------------------|
--------------------------|--------------------------|
--3--3--3--3--3--5--5--5--|--5--7--7--7--7--7--7--7--|
--3--3--3--3--3--5--5--5--|--5--7--7--7--7--7--7--7--|
--3--3--3--3--3--5--5--5--|--5--7--7--7--7--7--7--7--|


  PM PM PM PM PM PM PM PM    PM PM PM PM PM PM PM PM  
  E  E  E  E  E  E  E  E     E  E  E  E  E  E  E  E   
--------------------------|--------------------------|
--------------------------|--------------------------|
--------------------------|--------------------------|
--7--7--7--7--7--7--7--7--|--7--7--7--7--7--7--7--7--|
--7--7--7--7--7--7--7--7--|--7--7--7--7--7--7--7--7--|
--7--7--7--7--7--7--7--7--|--7--7--7--7--7--7--7--7--|


  PM PM PM PM PM PM PM PM      PM PM PM PM PM PM        
  E  E  E  E  E  E  E  E       E  E  E  E  E  E  E  E   
---------------------------||--------------------------|
---------------------------||--------------------------|
--------------------------*||--------------------------|
--7--7--7--7--7--5--5--5--*||--7--7--7--7--x--x-----3--|
--7--7--7--7--7--5--5--5---||--7--7--7--7--x--x-----3--|
--7--7--7--7--7--5--5--5---||--7--7--7--7--x--x-----3--|


    E  E  Q    E  E  Q       E  E  Q    E  E  E  E     E  E  Q    E  E  E  E   
|-------------------------|-------------------------|-------------------------|
|-------------------------|-------------------------|-------------------------|
|*------------------------|-------------------------|-------------------------|
|*--L--3--3----3--3--3----|--3--3--3----3--5-----5--|--L--7--7----7--7-----9--|
|---L--3--3----3--3--3----|--3--3--3----3--5-----5--|--L--7--7----7--7-----7--|
|---L--3--3----3--3--3----|--3--3--3----3--5-----5--|--L--7--7----7--7-----7--|


                                 PM  PM  PM  PM  PM  PM  PM  PM  
  E  E  E   Q     E  E  E   4x   E   E   E   E   E   E   E   E   
----------------------------||----------------------------------|
----------------------------||----------------------------------|
---------------------------*||----------------------------------|
--L--9-----10----10-----3--*||------------------17--17----------|
--L--7------7-----7-----3---||----------15--15----------15--15--|
--L--7------7-----7-----3---||--15--15--------------------------|


   PM  PM  PM  PM  PM  PM  PM  PM                             
   E   E   E   E   E   E   E   E     E  E  E  E  E  E  E  E   
----------------------------------|--------------------------|
----------------------------------|--------------------------|
----------------------------------|--4--5--5-----5--4--4--4--|
------------------17--17----------|--5--7--7-----7--5--5--5--|
----------15--15----------15--15--|--------------------------|
--15--15--------------------------|--------------------------|


  E  E  E  E  E  E  E  E     E  E  E  E  E  E  E  E   
--------------------------|--------------------------|
--------------------------|--------------------------|
--L--5--5-----5--4--4--4--|--L--5--5-----5--4--4--4--|
--L--7--7-----7--5--5--5--|--L--7--7-----7--5--5--5--|
--------------------------|--------------------------|
--------------------------|--------------------------|


  E  E  E  E  E  E  E  E     E  E  Q    E  E  Q       E  E  Q    E  E  E  E   
--------------------------|------------------------|-------------------------|
--------------------------|------------------------|-------------------------|
--L--5--5-----5--4--4-----|------------------------|-------------------------|
--L--7--7-----7--5--5--5--|--L--5--5----5--5--5----|--5--5--5----5--5-----5--|
-----------------------3--|--L--3--3----3--3--3----|--3--3--3----3--3-----5--|
-----------------------3--|--L--3--3----3--3--3----|--3--3--3----3--3-----5--|


  E  E  E  E  E  E  E  E     E  E  E  E  E  E  E  E   
--------------------------|--------------------------|
--------------------------|--------------------------|
--------------------------|-----------------------4--|
--L--5--5-----5-----5-----|--5-----5-----5--5-----5--|
--L--5--5-----5-----5-----|--5-----5-----5--5--------|
--L--5--5-----5-----5-----|--5-----5-----5--5--------|


  E  E  E  E  E  E  E  E     E  E  E  E  E  E  E  E   
--------------------------|--------------------------|
--------------------------|--------------------------|
--4--5--5-----5--4--4--4--|--L--5--5-----5--4--4--4--|
--5--7--7-----7--5--5--5--|--L--7--7-----7--5--5--5--|
--------------------------|--------------------------|
--------------------------|--------------------------|


  E  E  E  E  E  E  E  E     E  E  E  E  E  E  E  E     E  E  Q    E  E  Q     
--------------------------|--------------------------|------------------------|
--------------------------|--------------------------|------------------------|
--L--5--5-----5--4--4--4--|--L--5--5-----5--4--4-----|------------------------|
--L--7--7-----7--5--5--5--|--L--7--7-----7--5--5--5--|--L--5--5----5--5--5----|
--------------------------|-----------------------3--|--L--3--3----3--3--3----|
--------------------------|-----------------------3--|--L--3--3----3--3--3----|


  E  E  Q    E  E  E  E     E  E  Q    E  E  Q       E  E  Q    E  E  E  E   
-------------------------|------------------------|-------------------------|
-------------------------|------------------------|-------------------------|
-------------------------|------------------------|-------------------------|
--5--5--5----5--5-----5--|--L--5--5----5--5--5----|--5--5--5----5--5--5--5--|
--3--3--3----3--3-----5--|--L--5--5----5--5--5----|--5--5--5----5--5--5--5--|
--3--3--3----3--3-----5--|--L--5--5----5--5--5----|--5--5--5----5--5--5--5--|


    PM PM PM PM PM PM PM PM    PM PM PM PM PM PM PM PM  
    E  E  E  E  E  E  E  E     E  E  E  E  E  E  E  E   
|---------------------------|--------------------------|
|---------------------------|--------------------------|
|*--------------------------|--------------------------|
|*--3--3--3--3--3--3--3--3--|--3--3--3--3--3--3--3--3--|
|---3--3--3--3--3--3--3--3--|--3--3--3--3--3--3--3--3--|
|---3--3--3--3--3--3--3--3--|--3--3--3--3--3--3--3--3--|


  PM PM PM PM PM PM PM PM    PM PM PM PM PM PM PM PM  
  E  E  E  E  E  E  E  E     E  E  E  E  E  E  E  E   
--------------------------|--------------------------|
--------------------------|--------------------------|
--------------------------|--------------------------|
--3--3--3--3--3--3--3--3--|--3--3--3--3--3--5--5--5--|
--3--3--3--3--3--3--3--3--|--3--3--3--3--3--5--5--5--|
--3--3--3--3--3--3--3--3--|--3--3--3--3--3--5--5--5--|


  PM PM PM PM PM PM PM PM    PM PM PM PM PM PM PM PM  
  E  E  E  E  E  E  E  E     E  E  E  E  E  E  E  E   
--------------------------|--------------------------|
--------------------------|--------------------------|
--------------------------|--------------------------|
--5--7--7--7--7--7--7--7--|--7--7--7--7--7--7--7--7--|
--5--7--7--7--7--7--7--7--|--7--7--7--7--7--7--7--7--|
--5--7--7--7--7--7--7--7--|--7--7--7--7--7--7--7--7--|


  PM PM PM PM PM PM PM PM    PM PM PM PM PM PM PM PM    
  E  E  E  E  E  E  E  E     E  E  E  E  E  E  E  E     
--------------------------|---------------------------||
--------------------------|---------------------------||
--------------------------|--------------------------*||
--7--7--7--7--7--7--7--7--|--7--7--7--7--7--5--5--5--*||
--7--7--7--7--7--7--7--7--|--7--7--7--7--7--5--5--5---||
--7--7--7--7--7--7--7--7--|--7--7--7--7--7--5--5--5---||


  PM PM PM PM PM PM                                                             
  E  E  E  E  E  E  E  E       E  E  Q    E  E  Q       E  E  Q    E  E  E  E   
--------------------------||-------------------------|-------------------------|
--------------------------||-------------------------|-------------------------|
--------------------------||*------------------------|-------------------------|
--7--7--7--7--x--x-----3--||*--L--3--3----3--3--3----|--3--3--3----3--5-----5--|
--7--7--7--7--x--x-----3--||---L--3--3----3--3--3----|--3--3--3----3--5-----5--|
--7--7--7--7--x--x-----3--||---L--3--3----3--3--3----|--3--3--3----3--5-----5--|


  E  E  Q    E  E  E  E     E  E  E   Q     E  E  E   4x
-------------------------|----------------------------||
-------------------------|----------------------------||
-------------------------|---------------------------*||
--L--7--7----7--7-----9--|--L--9-----10----10-----3--*||
--L--7--7----7--7-----7--|--L--7------7-----7-----3---||
--L--7--7----7--7-----7--|--L--7------7-----7-----3---||


   PM  PM  PM  PM  PM  PM  PM  PM                                     
   E   E   E   E   E   E   E   E      E   E   E   E   E   E   E   E   
----------------------------------|----------------------------------|
----------------------------------|----------------------------------|
----------------------------------|--17--17--16--16----------14--14--|
------------------17--17----------|------------------17--17----------|
----------15--15----------15--15--|----------------------------------|
--15--15--------------------------|----------------------------------|


  PM PM PM           PM                     PM PM PM           PM     
  S  S  E  Q    Q    E  E     E  Q    E     S  S  E  Q    Q    E  E   
---------------------------|-------------|---------------------------|
---------------------------|-------------|---------------------------|
-----------5----5-------5--|--L--5----L--|-----------5----5----------|
-----------7----7-------7--|--L--7----L--|-----------7----7-------3--|
--0--0--0------------0-----|-------------|--0--0--0------------0--3--|
---------------------------|-------------|------------------------3--|


                 PM PM PM           PM                   
  E  Q.          S  S  E  Q    Q    E  E     E  Q    E   
------------||----------------------------|-------------|
------------||----------------------------|-------------|
------------||*-----------5----5-------5--|--L--5----L--|
--L--5------||*-----------7----7-------7--|--L--7----L--|
--L--5------||---0--0--0------------0-----|-------------|
--L--5------||----------------------------|-------------|


  PM PM PM           PM                                          
  S  S  E  Q    Q    E  E     E  Q.      3x  Q.     Q.     Q     
---------------------------|-------------||---------------------|
---------------------------|-------------||---------------------|
-----------5----5----------|------------*||---------0-----------|
-----------7----7-------3--|--L--5------*||---------------------|
--0--0--0------------0--3--|--L--5-------||----------------3----|
------------------------3--|--L--5-------||--3------------------|


             NH                                           NH        
  H          H           Q.     Q.     Q       H          H         
----------------------|---------------------|----------------------|
--0--------<>5--------|---------------------|--0--------<>5--------|
----------------------|----------------0----|-----------<>5--------|
----------------------|---------------------|----------------------|
----------------------|---------3-----------|----------------------|
----------------------|--0------------------|----------------------|


                                   NH                              
  Q.     Q.     Q       H          H           Q.     Q.     Q     
---------------------|----------------------|---------------------|
---------------------|--0--------<>5--------|---------------------|
----------------0----|----------------------|----------------0----|
---------------------|----------------------|---------------------|
---------3-----------|----------------------|---------3-----------|
--3------------------|----------------------|--0------------------|


  H        E  E  E  E       E  E  Q    E  E  Q       E  E  Q    E  E  E  E   
-----------------------||-------------------------|-------------------------|
--0--------------------||-------------------------|-------------------------|
-----------------------||*------------------------|-------------------------|
-----------x--x--x--3--||*--L--3--3----3--3--3----|--3--3--3----3--5-----5--|
-----------x--x--x--3--||---L--3--3----3--3--3----|--3--3--3----3--5-----5--|
-----------x--x--x--3--||---L--3--3----3--3--3----|--3--3--3----3--5-----5--|


  E  E  Q    E  E  E  E     E  E  E   Q     E  E  E   4x
-------------------------|----------------------------||
-------------------------|----------------------------||
-------------------------|---------------------------*||
--L--7--7----7--7-----9--|--L--9-----10----10-----3--*||
--L--7--7----7--7-----7--|--L--7------7-----7-----3---||
--L--7--7----7--7-----7--|--L--7------7-----7-----3---||


  E  E  E  E  E  E  E  E     E  E  E  E  E  E  E  E   
--------------------------|--------------------------|
--------------------------|--------------------------|
--------------------------|--------------------------|
--3--3--3--3--3--3--3--3--|--3--3--3--3--3--5--5--5--|
--3--3--3--3--3--3--3--3--|--3--3--3--3--3--5--5--5--|
--3--3--3--3--3--3--3--3--|--3--3--3--3--3--5--5--5--|


  E  E  E  E  E  E  E  E     E  E  E  E  E  E  E  E   
--------------------------|--------------------------|
--------------------------|--------------------------|
--------------------------|--------------------------|
--5--7--7--7--7--7--7--7--|--7--7--7--7--7--5--5--5--|
--5--7--7--7--7--7--7--7--|--7--7--7--7--7--5--5--5--|
--5--7--7--7--7--7--7--7--|--7--7--7--7--7--5--5--5--|


    E  E  E  E  E  E  E  E     E  E  E  E  E  E  E  E   
|---------------------------|--------------------------|
|---------------------------|--------------------------|
|*--------------------------|--------------------------|
|*--5--3--3--3--3--3--3--3--|--3--3--3--3--3--5--5--5--|
|---5--3--3--3--3--3--3--3--|--3--3--3--3--3--5--5--5--|
|---5--3--3--3--3--3--3--3--|--3--3--3--3--3--5--5--5--|


  E  E  E  E  E  E  E  E     E  E  E  E  E  E  E  E   3x
--------------------------|---------------------------||
--------------------------|---------------------------||
--------------------------|--------------------------*||
--5--7--7--7--7--7--7--7--|--7--7--7--7--7--5--5--5--*||
--5--7--7--7--7--7--7--7--|--7--7--7--7--7--5--5--5---||
--5--7--7--7--7--7--7--7--|--7--7--7--7--7--5--5--5---||


  PM PM PM           PM                    
  S  S  E  Q    Q    E  E     E  Q    E    
---------------------------|-------------||
---------------------------|-------------||
-----------5----5-------5--|--L--5----L--||
-----------7----7-------7--|--L--7----L--||
--0--0--0------------0-----|-------------||
---------------------------|-------------||




Duration Legend
---------------
W - whole
H - half
Q - quarter
E - 8th
S - 16th
T - 32nd
X - 64th
. - note dotted
|-n-|  - n-tuplets


Tablature Legend
----------------
L - tied note
x - dead note
g - grace note
(n) - ghost note
> - accentuded note
NH - natural harmonic
AH - artificial harmonic
TH - tapped harmonic
SH - semi harmonic
PH - pitch harmonic
h - hammer on
p - pull off
b - bend
br - bendRelease
pb - preBend
pbr - preBendRelease
brb - bendReleaseBend
\n/ - tremolo bar dip
\n - tremolo bar dive
-/n - tremolo bar Release up
/n\ - tremolo bar inverted dip
/n - tremolo bar return
-\n - tremolo bar Release down
S - shift slide
s - legato slide
/ -  slide into from below or out of upwards
\ -  slide into from above or out of downwards
~ - vibrato
W - wide vibrato
tr - trill
TP - tremolo picking
T - tapping
S - slap
P - pop
< - fade in
^ - brush up
v - brush down


            
            
Suggest correction
Creating personal tab
Creating personal tab
You can edit any tab online and save it as your Personal.

You can edit, replace or remove any tab part or add personal notes – all changes will be seen only by you.

Personal tabs can be accessed anytime from any device, even offline.
Learn more »
Give kudos to tab author, rate the tab!
1 2 3 4 5
comments
print report bad tab
5 comments total. Showing first comments.
0 reply
Rockinguitar 50 Apr 18, 2009 04:32 PM

AWESOME 1st!!! Only one thing wrong with this tab....it's track 9, not one. j/k lol, thanx for the upload.

0 reply
drumfrea0314 92 Apr 19, 2009 02:36 PM

my bad lol.

that was actually not related to the song track, that was related to the guitar track

+2 reply
kkluvsxbox 10 Sep 04, 2009 05:58 PM

Someone figure out the acoustic version to this song! It's amazing!!!

guest
You may want to rate the tab now too:
select rating
Wanna post a correction for this tab? Suggest correction