Oops, an error
Loading. Please wait.

Vanishings tab

version 1
version 1

Whole song

Interactive

4,271 views 1 this week
3 commentsread comments
1 2 3 4 5
x 4
add to favorites
×
Save as Personal and add changes to this tab that will be seen only by you. Learn more ›
×
You can save this tab as Personal to edit and correct it or add notes. All changes will be seen only by you. Learn more »
launch autoscroll
font size
0
reset
how to read this tab
guitar tuner
edit
Autoscroll
slow
fast
+/-
esc
set tempo
stop
Author
Song: Vanishings 
By: Secret and Whisper
Album: Great White Whale
2008
Tuning: Drop C (CGCFAD)

This is my first tab. If you find any mistakes, please post a 
correction so that we can make this as accurate as possible!

Update 11/6/09: Made several corrections to Verse 1, redid most of the 
tremolo sections, made slight changes to guitar 2's part in the "phantom
walks to the sea" and "lost it all" sections. I promise you this tab is at
least 95% accurate. 

Tab legend: 
*:Palm mute
/:Slide
^:Pinch harmonic
v: Vibrato

Opening:
Both guitars:
|------|
|------|
|------|
|-xxxx-|
|-xxxx-|
|-xxxx-|

Intro:
|Guitar 1 (With reverb)
|--------------------------------------------------------15-------|
|--17-17-------------------------17-17----------------------15----|
|--------14-14-16-16-17-17-17-17-------14-14-16-16-17-17----------|
|-----------------------------------------------------------------|
|-----------------------------------------------------------------|
|-----------------------------------------------------------------|
|
|Guitar 2
|-----------------------------------------------------------------|
|-----------------------------------------------------------------|
|-----------------------------------------------------------------|
|-7-7-7-7-7-7-7-7-7-7-7-7-7-7-7-7-0-0-0-0-0-0-0-0-2/3-3-3-3/5-5-5-|
|-7-7-7-7-7-7-7-7-7-7-7-7-7-7-7-7-0-0-0-0-0-0-0-0-2/3-3-3-3/5-5-5-|
|-7-7-7-7-7-7-7-7-7-7-7-7-7-7-7-7-0-0-0-0-0-0-0-0-2/3-3-3-3/5-5-5-|

|Guitar 1
|---------------------------------|
|-17-17---------------------------|
|-------14-14-16-16-17-17---------|
|---------------------------------|
|---------------------------------|
|---------------------------------|
|
|Guitar 2
|---------------------------------|
|---------------------------------|
|---------------------------------|
|-7-7-7-7-7-7-7-7-7-7-7-7-7-7-7-7-|
|-7-7-7-7-7-7-7-7-7-7-7-7-7-7-7-7-|
|-7-7-7-7-7-7-7-7-7-7-7-7-7-7-7-7-|

|Guitar 1
|-/20~~~-19~~~-19h20p19-----------|
|----------------------20~~~------|
|---------------------------------|    
|---------------------------------|    
|---------------------------------|    
|---------------------------------|    
|
|Guitar 2
|---------------------------------|                                  
|---------------------------------|                                  
|---------------------------------|                                  
|---------------------------------|                                  
|-2-0-2-0-3-0-3-0-5-0-5-0-777-777-|
|-2-0-2-0-3-0-3-0-5-0-5-0-777-777-|
  * * * * * * * * * * * * *** ***

Repeat, but end with 
|Guitar 1
|---------------------------------|
|---------------------------------|
|-/17~~~-16~~~-16h17p16-----------|
|----------------------17~/19~~~~-|
|---------------------------------|
|---------------------------------|
|
|Guitar 2
|---------------------------------|                                  
|---------------------------------|                                  
|---------------------------------|                                  
|---------------------------------|                                  
|-2-0-2-0-3-0-3-0-5-0-5-0-000-000-|
|-2-0-2-0-3-0-3-0-5-0-5-0-000-000-|
  * * * * * * * * * * * * *** *** 


Verse 1
Guitar 1 (Those are 10s, not 1s and 0s) 
|----------------------------------------------------|
|----------------------------------------------------|
|----------------------------------------------------|
|--------------7h10----7h10-------------7h10----7h10-|
|---------10878----1087-------------1087----1087-----|
|----------------------------------------------------|
|         * ***    * **             * **    * **
|           Some vanishings…        conjured mysteries… 
|Guitar 2
|----------------------------------------------------|
|----------------------------------------------------|
|----------------------------------------------------|
|----------------------------------------------------|
|-0-0-0-0-------------------0-0-0-0------------------|
|-0-0-0-0-------------------0-0-0-0------------------|
Pm* * *                     * * *            

|---------------------------------------------------------|
|------------------------------------------------------^v-|
|--------------10-0-10p9-0-9h10------------------0-^-0-10-|
|-------------7-----------------------------7h10---7------|
|---------1087--------------------------1087--------------|
|---------------------------------------------------------|
|         * **    *      *              * **     *   *
|         Disappear inside of mist and breeze, WHOAOAOA
|Guitar 2
|---------------------------------------------------------| 
|---------------------------------------------------------|
|---------------------------------------------------------|
|---------------------------------------------------------|
|-2-2-2-2-----------------------0-0-0-0-------------------|
|-2-2-2-2-----------------------0-0-0-0-------------------|
Pm* * *                         * * *            


|---------------------------------------------------|
|---------------------------------------------------|
|---------------------------------------------------|
|-------------7h10----7h10-------------7h10----7h10-|
|---------1087----1087-------------1087----1087-----|
|---------------------------------------------------|
|         * **    * **             * **    * **
|         If I lost you I swear I meeeeeeeeeeant…
|Guitar 2
|---------------------------------------------------|
|---------------------------------------------------|
|---------------------------------------------------|
|---------------------------------------------------|
|-0-0-0-0------------------0-0-0-0------------------|
|-0-0-0-0------------------0-0-0-0------------------|
Pm* * *                    * * *            


|------------------------------------------------------------------------|
|--------------^----^------^-------------------------- ^--------------^v-|
|--------------10-0-10p9-0-9h10------------------0-^-0-5/9/14~--------12-|
|-------------7-----------------------------7h10---7----------12~-10p9---|
|---------1087--------------------------1087-----------------------------|
|------------------------------------------------------------------------|
|         * **    *      *              * **     *   *
|           To give you a second chaaaaaaaaaaaaaance!
|Guitar 2
|------------------------------------------------------------------------|
|------------------------------------------------------------------------|
|------------------------------------------------------------------------|
|------------------------------------------------------------------------|
|-2-2-2-2-----------------------0-0-0-0----------------------------------|
|-2-2-2-2-----------------------0-0-0-0----------------------------------|
Pm* * *                         * * *            

Both guitars
|------|
|------|
|------|
|-xxxx-|
|-xxxx-|
|-xxxx-|
Aaand

Chorus
Guitar 1 (All tremolo picked)
|----------------------------------------------|
|----------------------------------------------|
|-17-16----14~~~---14~~~17-16----14~~~---14~~~-|
|-------17------17------------17------17-------|
|----------------------------------------------|
|----------------------------------------------|
| Weeeeeeeeeeeeeeeeee   will goooooooooooooooo
|Guitar 2 
|----------------------------------|
|----------------------------------|
|----------------------------------|
|-77777777777777775555555555555555-|
|-77777777777777775555555555555555-|
|-77777777777777775555555555555555-|

|Guitar 1
|---------------------------------------------------|
|------------------------18-17-15-18~~~17-15~~~~~~~-|
|-17-16----14~~~---14~~~----------------------------|
|-------17------17----------------------------------|
|---------------------------------------------------|
|---------------------------------------------------|
|Where no one ever        knooooooooooooooooows!
|Guitar 2
|--------------------------------------------------|
|--------------------------------------------------|
|--------------------------------------------------|
|-333333333333333310101010101010101010101010101010-|
|-333333333333333310101010101010101010101010101010-|
|-333333333333333310101010101010101010101010101010-|

Interlude (both guitars)             And I say never a-
|-------------------------15-------------------------------------------|
|-17-17----------------------15-15/17~~~~~~~~~~~~~~~~~-----------------|
|-------14-14-16-16-17-17----------------------------------------------|
|----------------------------------------------------------------------|
|----------------------------------------------------------------------|
|----------------------------------------------------------------------|

|Guitar 1
|----------------------------------------------------------------------|
|-/10~~~/13/12/15/20~/15~~~~~~~~~--------------------------------------|
|----------------------------------------------------------------------|
|----------------------------------------------------------------------|
|----------------------------------------------------------------------|
|----------------------------------------------------------------------|
| -gain…          To friends and fads and fitting in, whoaoaoa!
|Guitar 2 (clean)
|----------------------------------------------------------------------|
|----------------------------------------------------------------------|
|---------------------------0------------------------------------------|
|---------------------------------1------------------------------------|
|----------------------3------------------3/1~~~/8---------------------|
|----------------------------------------------------------------------|

Verse 2
Guitar 1 
|-----------------------------------------------------------------|
|-----------------------------------------------------------------|
|-----------------^----^-----^-------^------------^----^------^---|
|-----------------10---10p7--7-------7------------10---10p7---10--|
|------------------------------108-7------------------------------|
|-----------------------------------------------------------------|
|                              * * *                              
|A phantom        walks to  the    sea! Fades and secretly 
|Guitar 2
|-----------------------------------------------------------------|
|-----------------------------------------------------------------|
|-----------------------------------------------------------------|
|-2-2-2-2-2-2-2-2-2-2-2-2-2-2-2-2-2-2-2-2-2-2-2-2-2-2-2-2-2-2-2-2-|
|-2-2-2-2-2-2-2-2-2-2-2-2-2-2-2-2-2-2-2-2-2-2-2-2-2-2-2-2-2-2-2-2-|
|-2-2-2-2-2-2-2-2-2-2-2-2-2-2-2-2-2-2-2-2-2-2-2-2-2-2-2-2-2-2-2-2-|
pm* * * * * * * * * * * * * * * * * * * * * * * * * * * * * * * *

|Guitar 1
|-----------------------------------------------------------------|
|-----------------------------------------------------------------|
|-----------------^---^--------------------------^----^-----------|
|-----------------7---7p5------------------------10---10p7--------|
|-----------------------------------------------------------------|
|-----------------------------------------------------------------|
| droooowns untiiiiiiiiil his heeeeeeart’s appeeeaaaaaassssssed!
|Guitar 2
|-----------------------------------------------------------------|
|-----------------------------------------------------------------|
|-----------------------------------------------------------------|
|-0-0-0-0-0-0-0-0-0-0-0-0-0-0-0-0-5-5-5-5-5-5-5-5-5-5-5-5-5-5-5-5-|
|-0-0-0-0-0-0-0-0-0-0-0-0-0-0-0-0-5-5-5-5-5-5-5-5-5-5-5-5-5-5-5-5-|
|-0-0-0-0-0-0-0-0-0-0-0-0-0-0-0-0-5-5-5-5-5-5-5-5-5-5-5-5-5-5-5-5-|
pm* * * * * * * * * * * * * * * * * * * * * * * * * * * * * * * *

|Guitar 1 (Quietly)
|-------------------------------------------------------------|
|-17-17-------------------------17-17-------------------------|
|-------14-14-16-16-17-17-17-17-------14-14-16-16-17-17-17-17-|
|-------------------------------------------------------------|
|-------------------------------------------------------------|
|-------------------------------------------------------------|
|(The timing’s too weird to tab, but it isn’t hard to figure out)
|Guitar 2                                          
|--------------------------------------------------------------|
|--------------------------------------------------------------|
|--------------------------------------------------------------|
|-777777777777777777777777999912121212121212121212121212121212-|
|-777777777777777777777777777710101010101010101010101010101010-|
|-777777777777777777777777777710101010101010101010101010101010-|
If I lost you I swear I meant… to give you a second chance!

Guitar 1
|--------------------------------------------------------15----15~-|
|--17-17-------------------------17-17----------------------15~----|
|--------14-14-16-16-17-17-17-17-------14-14-16-16-17-17-----------|
|------------------------------------------------------------------|
|------------------------------------------------------------------|
|------------------------------------------------------------------|
|Whammy down on the second 15, bring it back up on the third. You should
|be hitting the first 15 at the same time that guitar 2 hits the last
|power chord. 
|Guitar 2
|----------------------------------|
|----------------------------------|
|----------------------------------|
|-14141414141414141414141414141414-|
|-12121212121212121212121212121212-|
|-12121212121212121212121212121212-|

Chorus 2
Guitar 1 (All tremolo picked)
|----------------------------------------------|
|----------------------------------------------|
|-17-16----14~~~---14~~~17-16----14~~~---14~~~-|
|-------17------17------------17------17-------|
|----------------------------------------------|
|----------------------------------------------|
| Weeeeeeeeeeeeeeeeee   will goooooooooooooooo
|Guitar 2 
|----------------------------------|
|----------------------------------|
|----------------------------------|
|-77777777777777775555555555555555-|
|-77777777777777775555555555555555-|
|-77777777777777775555555555555555-|

|Guitar 1
|---------------------------------------------------|
|------------------------18-17-15-18~~~17-15~~------|
|-17-16----14~~~---14~~~----------------------17p15-|
|-------17------17----------------------------------|
|---------------------------------------------------|
|---------------------------------------------------|
|Where no one ever        knooooooooooooooooows!
|Guitar 2
|--------------------------------------------------|
|--------------------------------------------------|
|--------------------------------------------------|
|-333333333333333310101010101010101010101010101010-|
|-333333333333333310101010101010101010101010101010-|
|-333333333333333310101010101010101010101010101010-|

Guitar 1
|---------------------------------|
|-------------15~~17~~15~~18~~~~~-|
|-17~~~~~~~~~~--------------------|
|---------------------------------|
|---------------------------------|
|---------------------------------|
|And weeeeeee will never have to
|Guitar 2
|--------------------------------------------------|
|--------------------------------------------------|
|--------------------------------------------------|
|-777777777777777710101010101010101010101010101010-|
|-777777777777777710101010101010101010101010101010-|
|-777777777777777710101010101010101010101010101010-|

|---------------------------------------------------|
|------------------------18-17-15-18~~~17-15~~~~~~~-|
|-17-16----14~~~---14~~~----------------------------|
|-------17------17----------------------------------|
|---------------------------------------------------|
|---------------------------------------------------|
|Plaaaay the paaart    Of afeared in the dark… 
|Guitar 2
|----------------------------------|
|----------------------------------|
|----------------------------------|
|-33333333333333335555555555555555-|
|-33333333333333335555555555555555-|
|-33333333333333335555555555555555-|

Guitar 1
|----------|
|-15/17~~~-|
|----------|
|----------|
|----------|
|----------|
Slowly ease down on the rate of your tremolo.

Fade in each note. Play this part three times: The first time, 
it’s only guitar 1, the second and third time, both guitars 
play it. The third time, don’t do the two slides at the end. 
|--------------------------------------------------|
|--------------------------------------------------|
|-9~~~~~~~~~~7~~~~~~~~~~5~~~~~~~~~~7~~~~~~~~~/10/9-|
|--------------------------------------------------|
|--------------------------------------------------|
|--------------------------------------------------|
I’d        never      meant     for you
To mend  this heart  back in   from two
So eeeaaaasilyyyyyy  we loost  it aaall

Then:

Guitar 1: Tremolo the second 7 and the slides
|--------------------------------------------------|
|--------------------------------------------------|
|-9~~~~~~~~~~7~~~~~~~~~~5~~~~~~~~~~7~~~~~~~~~/10/9-|
|--------------------------------------------------|
|--------------------------------------------------|
|--------------------------------------------------|
|                              
|Guitar 2:
|-------------------------------------------------|
|-------------------------------------------------|
|-------------------------------------------------|
|-------------------------------------------------|
|-02023-02020-02023-02020-02023-02020-02023-02020-|
|-02023-02020-02023-02020-02023-02020-02023-02020-|
So eeeaaaasilyyyyyy  we loost  it aaall

Guitar 1 switches to this, all tremolo:
|-13p12~13p12~13p12~13p12~13p12~13p12~13p12~13p12~13p12~|
|-------------------------------------------------------|
|-------------------------------------------------------|
|-------------------------------------------------------|
|-------------------------------------------------------|
|-------------------------------------------------------|
|
|Guitar 2:
|-------------------------------------|
|-------------------------------------|
|-------------------------------------|
|-------------------------------------|
|-02023-02020-02023-02020-02023-02020-|
|-02023-02020-02023-02020-02023-02020-|
So eeeaaaasilyyyyyy  we loost  it aaaa-

Then:

Guitar 1
|-13p12h13p12h13p12h13p12h13p12h13p12h13p12h13p12h13~~~~~~~~~~~~~~~~~~-|
|----------------------------------------------------------------------|
|----------------------------------------------------------------------|
|----------------------------------------------------------------------|
|----------------------------------------------------------------------|
|----------------------------------------------------------------------|
|
|Guitar 2: (still the same speed, this is for comparison)
|---------------------------------------------------|
|---------------------------------------------------|
|---------------------------------------------------|
|---------------------------------------------------|
|-0----2----0----2----3-------0----2----0----2----0-|
|-0----2----0----2----3-------0----2----0----2----0-|
-aaaaaaaaaaaaaaaaaaaaaaaaaaaaaaaaaaallllllllllllllll!

Repeat Chorus 2
Repeat Intro (minus the final slide to 19)
Outro:

|Guitar 1
|----------------------------------------------------|
|-/17-17-----------------------------8-8-----5-5-----|
|--------14-14-16-16-12-12-14-14/9-9-----7-7-----5-5-|
|----------------------------------------------------|
|----------------------------------------------------|
|----------------------------------------------------|
|X4 
|Guitar 2: (with feedback)
|----------------------------------------------------------------------|
|----------------------------------------------------------------------|
|----------------------------------------------------------------------|
|----------------------------------------------------------------------|
|-0~~~~~~~~~~~~~~~~~~~~~~~~~~~~~~~~~~~~~~~~~~~~~~~~~~~~~~~~~~~~~~~~~~~~|
|-0~~~~~~~~~~~~~~~~~~~~~~~~~~~~~~~~~~~~~~~~~~~~~~~~~~~~~~~~~~~~~~~~~~~~|

Fade…
|--------------------------------------------|
|-/17-17-----------------------------8-8-----|
|--------14-14-16-16-12-12-14-14/9-9-----7-7-|
|--------------------------------------------|
|--------------------------------------------|
|--------------------------------------------|

We’re done!

            
            
Suggest correction
Creating personal tab
Creating personal tab
You can edit any tab online and save it as your Personal.

You can edit, replace or remove any tab part or add personal notes – all changes will be seen only by you.

Personal tabs can be accessed anytime from any device, even offline.
Learn more »
comments
print report bad tab
3 comments total.
+1 reply
kcomputer99 16 Oct 09, 2009 12:08 PM

Outro:

|Guitar 1
|------------------------------------------------------------------|
|-/17-17-------------------------------8-8-----5-5-----------------|
|--------14-14-16-16-12-12-14-14/9-9-----7-7-----5-5-------------|
|------------------------------------------------------------------|
|------------------------------------------------------------------|
|------------------------------------------------------------------|

0 reply
JaguarAG 239 Oct 21, 2009 05:02 AM

Wow, I can't believe I made that mistake. Don't know what I was thinking, lol. In any case, thanks! I'll submit the correction immediately.

0 reply
JaguarAG 239 Nov 05, 2009 05:43 PM

Recently got some new direct recording equipment that makes tabbing stuff way easier. I'm working on a major update on this at the moment, so if you wanted to give this a bad rating, please hold off for a little longer!

guest
You may want to rate the tab now too:
select rating
Wanna post a correction for this tab? Suggest correction