Oops, an error
Loading. Please wait.

Xoxoxo tab

version 1
version 1

Whole song

Interactive

5,874 views 9 this week
7 commentsread comments
1 2 3 4 5
x 6
add to favorites
×
Save as Personal and add changes to this tab that will be seen only by you. Learn more ›
×
You can save this tab as Personal to edit and correct it or add notes. All changes will be seen only by you. Learn more »
launch autoscroll
font size
0
reset
how to read this tab
guitar tuner
edit
Autoscroll
slow
fast
+/-
esc
set tempo
stop
Difficulty
intermediate
XOXOXO

Standard or Drop D tuning is fine. It doesn’t matter which you use.
Danburage@yahoo.com


e|------------------------------------------------------------------------|
B|------------------------------------------------------------------------|
G|------------------------------------------------------------------------|
D|------------------------------------------------------------------------|
A|-13-15-17-13-17-13-13-20-17-(x3)--13-15-17-13-17-13-13-15-12------------|
E|------------------------------------------------------------------------|

e|------------------------------------------------------------------------|
B|------------------------------------------------------------------------|
G|------------------------------------------------------------------------|
D|---------------------------------------------------17-------------------|
A|-13-15-17-13-17-13-13-20-17-13-15-17-13-17-13-13-------17---------------|
E|------------------------------------------------------------------------|

e|------------------------------------------------------------------------|
B|------------------------------------------------------------------------|
G|------------------------------------------------------------------------|
D|---------------------------------------------------20-19----------------|
A|-13-15-17-13-17-13-13-20-17-13-15-17-13-17-13-13------------------------|
E|------------------------------------------------------------------------|

e|-----(stormy and windy night)--------------------------------------------|
B|-------------------------------------------------------------------------|
G|-------------------------------------------------------------------------|
D|-2--2---2-2-2--xxx--2-2--2-x--2--2-----2-2-2---x-x---2-2-2-----2-2---2-2-|
A|-2--2---2-2-2--xxx--2-2--2-x--2--2-----2-2-2---x-x---2-2-2-----2-2---2-2-|
E|-0--0---0-0-0--xxx--0-0--0-x--0--0-----0-0-0----x-x--0-0-0-----0-0---0-0-|

e|-----(reminds me of you tonight)----------------------------------------|
B|------------------------------------------------------------------------|
G|------------------------------------------------------------------------|
D|-2-2-----2-2-2--2---------------14----2--2-2-2--1----------------12-----|
A|-2-2-----2-2-2--2---(slide to)--14----2--2-2-2--1—(slide to)-----12-----|
E|-0-0-----0-0-0--0---------------14----0--0-0-0--0----------------12-----|

e|-----(You’re wild and Fragile)------------------------------------------|
B|------------------------------------------------------------------------|
G|------------------------------------------------------------------------|
D|-2--2-----2-2-2----2------------14---2—2-2-2—2------------12---2—2-2-2--|
A|-2--2-----2-2-2----2  (Slide to)14---2—2-2-2—2 (Slide to)-12---2—2-2-2--|
E|-0--0-----0-0-0----0------------0----0—0-0-0—0-------------0---0—0-0-0--|

e|-------------------|---(you know the city…..)------------------------------|
B|-------------------|----(Continue Until Chorus)----------------------------|
G|-------------------|-------------------------------------------------------|
D|-5--5--3---2--2----|--2--2-2--2-2-2--2-2--2--2-2--2-2-2--5--2--5-2-2-2-2-2-|
A|-5--5--3---2--2----|--2--2-2--2-2-2--2-2--2--2-2--2-2-2--5--2--5-2-2-2-2-2-|
E|-5--5--3---2--2----|--2--2-2--2-2-2--2-2--2--2-2--2-2-2--5--2--5-2-2-2-2-2-|


e|---(the secrets I’m never…..)----------------------------------------------|
B|----(Continue Until Chorus)------------------------------------------------|
G|---------------------------------------------------------------------------|
D|2--2-2---2-2-2--2-2---2--2-2--2-2-2--5---2-5-5-5-5-5 -7-7-7-7-7-7----------|
A|2--2-2---2-2-2--2-2---2--2-2--2-2-2--5—--2-5-5-5-5-5 -7-7-7-7-7-7----------|
E|2--2-2---2-2-2--2-2---2--2-2--2-2-2--5--—2-5-5-5-5-5 -7-7-7-7-7-7----------|

(Drum Roll)

Chorus
e|---------(machinery)---------------------------------------------------|
B|-----------------------------------------------------------------------|
G|-----------------------------------------------------------------------|
D|---2---2-2-2---2-2-----5-5-5--5-5----7--7--7---------------------------|
A|---2---2-2-2---2-2-----5-5-5--5-5----7--7--7---------------------------|
E|---0---0-0-0---0-0-----5-5-5--5-5----7--7--7---------------------------|

e|---------(Don’t Fail on me)-----------------------------------------------|
B|--------------------------------------------------------------------------|
G|--------------------------------------------------------------------------|
D|---2---2-2-2---2-2-----7-7-7--7-7----5--5--5------------------------------|
A|---2---2-2-2---2-2-----7-7-7--7-7----5--5--5------------------------------|
E|---0---0-0-0---0-0-----7-7-7--7-7----5--5--5------------------------------|

e|---------(I’ve fixed all these things)------(As their falling apart)------|
B|--------------------------------------------------------------------------|
G|--------------------------------------------------------------------------|
D|2---2-2-2---2-2--5-5-5--5-5-5-5--7--7--7--7-7--7-7---9--9--9-9-9—9-9-9----|
A|2---2-2-2---2-2--5-5-5--5-5-5-5--7--7--7--7-7--7-7---9--9--9-9-9-9-9-9----|
E|0---0-0-0---0-0--5-5-5--5-5-5-5--7-—7--7--7-7--7-7---9--9--9-9-9-9-9-9----|

Interlude

e|-------------------------------------------------------------------------|
B|-------------------------------------------------------------------------|
G|-------------------------------------------------------------------------|
D|----------------------------------------------------17-------------------|
A|-13-15-17-13-17-13-13-20-17-13-15-17-13-17-13-13-------17----------------|
E| ------------------------------------------------------------------------|

e|--------------------------------------------------------------------------|
B|--------------------------------------------------------------------------|
G|--------------------------------------------------------------------------|
D|----------------------------------------------------20-19-----------------|
A|-13-15-17-13-17-13-13-20-17-13-15-17-13-17-13-13--------------------------|
E|--------------------------------------------------------------------------|

Bridge


e|-----(She’s drawing x and o’s)---------------------------------------------|
B|---------------------------------------------------------------------------|
G|---------------------------------------------------------------------------|
D|-2----2-2-2----2--------14-----2---2-2-2----2---------12------2-2-2---2-2--|
A|-2----2-2-2----2—(slide)14-----2---2-2-2----2-(slide)-12------2-2-2---2-2--|
E|-0----0-0-0----0--------0-----0----0-0-0----0----------0------0-0-0---0-0--|


e|-----(Into her panty hose)--------------------------------------------|
B|----------------------------------------------------------------------|
G|----------------------------------------------------------------------|
D|-2-2-----2-2-2--2-----------14----2--2-2-2--1----------12----2--2-2-2-|
A|-2-2-----2-2-2--2---(slide)-14----2--2-2-2--1—(slide)--12----2--2-2-2-|
E|-0-0-----0-0-0--0-----------14----0--0-0-0--0----------12----0--0-0-0-|

e|----------------|---(you know the city…..)---------------------------------|
B|----------------|----(Continue Until Chorus)-------------------------------|
G|----------------|----------------------------------------------------------|
D|5--5--3---2--2--|2--2-2---2-2-2--2-2---2--2-2--2-2-2--14--2--14--2-2-2-2-2-|
A|5--5--3---2--2--|2--2-2---2-2-2--2-2---2--2-2--2-2-2--14--2--14--2-2-2-2-2-|
E|5--5--3---2--2--|2--2-2---2-2-2--2-2---2--2-2--2-2-2--0---2--0---2-2-2-2-2-|


e|---(the secrets I’m never…..)--------------------------------------------|
B|----(Continue Until Chorus)----------------------------------------------|
G|-------------------------------------------------------------------------|
D|2--2-2---2-2-2--2-2---2--2-2--2-2-2--5-2-5-5-5-5-5 -7-7-7-7-7-7----------|
A|2--2-2---2-2-2--2-2---2--2-2--2-2-2--5—2-5-5-5-5-5 -7-7-7-7-7-7----------|
E|2--2-2---2-2-2--2-2---2--2-2--2-2-2--5—2-5-5-5-5-5 -7-7-7-7-7-7----------|

Chorus

e|--------------------------------------------------------------------------|
B|--13--13--13—13--13--13--13--13--13--13--13---13---13-(slide to)--16---11-|
G|--------------------------------------------------------------------------|
B|--------------------------------------------------------------------------|
A|--------------------------------------------------------------------------|
E|--------------------------------------------------------------------------|

e|-------------------------------------------------------------------------|
B|---11--11---11—11---11--11---11---11---11---8---11--13-------------------|
G|-------------------------------------------------------------------------|
B|-------------------------------------------------------------------------|
A|-------------------------------------------------------------------------|
E|-------------------------------------------------------------------------|

e|--------------------------------------------------------------------------|
B|13--13--13—13--13--13--13--13--13--13---13---13----13-(slide to)--16---11-|
G|--------------------------------------------------------------------------|
B|--------------------------------------------------------------------------|
A|--------------------------------------------------------------------------|
E|--------------------------------------------------------------------------|


e|-------------------------------------------------------------------------|
B|---11--11---11—11---11--11---11---11---11---16---15--13------------------|
G|-------------------------------------------------------------------------|
B|-------------------------------------------------------------------------|
A|-------------------------------------------------------------------------|
E|-------------------------------------------------------------------------|

e|----------------------------------------------------------------------|
B|----------------------------------------------------------------------|
G|--8-(x8) -10-(x8)-12-(x16)-------12-15(x4)---10-12(x13)---------------|
D|----------------------------------------------------------------------|
A|----------------------------------------------------------------------|
E|----------------------------------------------------------------------|
                        (Repeat until interlude)


Interlude
e|--------------------------------------------------------------------------|
B|--------------------------------------------------------------------------|
G|--------------------------------------------------------------------------|
D|--------------------------------------------------------------------------|
A|-13-15-17-13-17-13-13-20-17-(x3)--13-15-17-13-17-13-13-15-12--------------|
E|--------------------------------------------------------------------------|

e|-------------------------------------------------------------------------|
B|-------------------------------------------------------------------------|
G|-------------------------------------------------------------------------|
D|---------------------------------------------------17--------------------|
A|-13-15-17-13-17-13-13-20-17-13-15-17-13-17-13-13------17-----------------|
E| ------------------------------------------------------------------------|

e|--------------------------------------------------------------------------|
B|--------------------------------------------------------------------------|
G|--------------------------------------------------------------------------|
D|--------------------------------------------------20-19-------------------|
A|-13-15-17-13-17-13-13-20-17-13-15-17-13-17-13-13--------------------------|
E|--------------------------------------------------------------------------|

e|---------(machinery)---------------------------------------------------|
B|-----------------------------------------------------------------------|
G|-----------------------------------------------------------------------|
D|---2---2-2-2---2-2-----5-5-5--5-5----7--7--7---------------------------|
A|---2---2-2-2---2-2-----5-5-5--5-5----7--7--7---------------------------|
E|---0---0-0-0---0-0-----5-5-5--5-5----7--7--7---------------------------|

e|---------(Don’t Fail on me)------------------------------------------------|
B|---------------------------------------------------------------------------|
G|---------------------------------------------------------------------------|
D|---2---2-2-2---2-2-----12-12-12-12--12----14--14--14-----------------------|
A|---2---2-2-2---2-2-----12-12-12--12-12----14--14--14-----------------------|
E|---0---0-0-0---0-0-----12-12-12--12-12----14--14--14-----------------------|

e|---------(I’ve fixed all these things)--------(As their falling apart)---|
B|-------------------------------------------------------------------------|
G|-------------------------------------------------------------------------|
D|-2---2-2-2---2-2---5-5-5--5-5-5-5--7--7--7--7-7--7-7---9--9--9-9-9—9-9-9-|
A|-2---2-2-2---2-2---5-5-5--5-5-5-5--7--7--7--7-7--7-7---9--9--9-9-9-9-9-9-|
E|-0---0-0-0---0-0---5-5-5--5-5-5-5--7--7--7--7-7--7-7---9--9--9-9-9-9-9-9-|

(Play During End Chorus)

e|------------------------------------------------------------------------|
B|--13--13--13—13--13--13--13--13--13--13--13--13--13-(slide to)--16---11-|
G|------------------------------------------------------------------------|
B|------------------------------------------------------------------------|
A|------------------------------------------------------------------------|
E|------------------------------------------------------------------------|


e|-------------------------------------------------------------------------|
B|---11--11---11—11---11--11---11---11---11---8---11--13-------------------|
G|-------------------------------------------------------------------------|
B|-------------------------------------------------------------------------|
A|-------------------------------------------------------------------------|
E|-------------------------------------------------------------------------|

e|---------------------------------------------------------------------------|
B|13--13--13—13--13-13--13--13---13---13---13---13----13-(slide to)--16---11-|
G|---------------------------------------------------------------------------|
B|---------------------------------------------------------------------------|
A|---------------------------------------------------------------------------|
E|---------------------------------------------------------------------------|

e|----------------------------------------------------------------|
B|---11--11---11—11---11--11---11---11---11---16---15--13---------|
G|----------------------------------------------------------------|
B|-----------------------(Let it Ring)----------------------------|
A|----------------------------------------------------------------|
E|----------------------------------------------------------------|

            
            
Suggest correction
Creating personal tab
Creating personal tab
You can edit any tab online and save it as your Personal.

You can edit, replace or remove any tab part or add personal notes – all changes will be seen only by you.

Personal tabs can be accessed anytime from any device, even offline.
Learn more »
comments
print report bad tab
7 comments total. Showing first comments.
-1 reply
schecterman32 10 Mar 31, 2008 09:01 PM

its an alright tab, but theres a lot wrong. for one, they play in Drop-D, i know that essentially they are the same, but you cant use bar chords in standard tuning. what were you thinking dude?!?

+1 reply
kmilongo 1,014 Apr 02, 2008 01:14 PM

actually, they play in drop c.

0 reply
MidgtGuitarist 768 Apr 07, 2008 06:20 AM

yeah it's on drop c

and you can't play it in any other tuning cuz they use the low c alot in this song.

guest
Wanna post a correction for this tab? Suggest correction