Oops, an error
Loading. Please wait.

Xoxoxo tab

version 2
version 2

Whole song

Interactive

7,446 views 6 this week
4 commentsread comments
1 2 3 4 5
1 last vote to show rating
add to favorites
×
Save as Personal and add changes to this tab that will be seen only by you. Learn more ›
×
You can save this tab as Personal to edit and correct it or add notes. All changes will be seen only by you. Learn more »
launch autoscroll
font size
0
reset
how to read this tab
guitar tuner
edit
Autoscroll
slow
fast
+/-
esc
set tempo
stop
Intro:
D|-----------------------------------------------------------------------------------------|
A|-----------------------------------------------------------------------------------------|
F|----------------17--------------------19-------------------17----------------------------|
C|-17-19-19-19-------19--17-19-19-19-------19--17-19-19-19------19--17-19-19-19-15-17-14---|
G|-------------20--------------------20-------------------20-------------------------------|
C|-----------------------------------------------------------------------------------------|

D|-----------------------------------------------------------------------------------------|
A|---------------------------------------------------------------------------------18-17---|
F|----------------17--------------------19-------------------17----------------------------|
C|-17-19-19-19-------19--17-19-19-19-------19--17-19-19-19------19--17-19-19-19-15---------|
G|-------------20--------------------20-------------------20-------------------------------|
C|-----------------------------------------------------------------------------------------|

Verse:
D|-------------------------------------------------------------------------------------|
A|-------------------------------------------------------------------------------------|
F|-------------------------------------------------------------------------------------|
C|-0-xx-00-00------------00--0-xx-00-00------------0-0---------------------------------|
G|-0-xx-00-00-(let ring)-00--0-xx-00-00-(let ring)-0-0---------------------------------|
C|-0-xx-00-00------------00--0-xx-00-00------------0-0---------------------------------|

D|---------------------------------------------------------------------------------|
A|---------------------------------------------------------------------------------|
F|---------------------------------------------------------------------------------|
C|-0-x-x-00-00-12-12-10-12\-00-0-0-00-10-10-8-10\-0-00-0-00-888-777-555-333-5-7-8--|
G|-0-x-x-00-00-12-12-10-12\-00-0-0-00-10-10-8-10\-0-00-0-00-888-777-555-333-5-7-8--|
C|-0-x-x-00-00-12-12-10-12\-00-0-0-00-10-10-8-10\-0-00-0-00-888-777-555-333-5-7-8--|

Prechorus:
D|---------------------------------------------------------------------------|
A|---------------------------------------------------------------------------|
F|---------------------------------------------------------------------------|
C|-0-xx-00--0-0-xx-00-0-0-13-12-13/3-xx-33-33-3-xx-33-33---------------------|
G|-0-xx-00--0-0-xx-00-0-0-13-12-13/3-xx-33-33-3-xx-33-33---------------------|
C|-0-xx-00--0-0-xx-00-0-0-13-12-13/3-xx-33-33-3-xx-33-33---------------------|

D|--------------------------------------------------------------------------------|
A|--------------------------------------------------------------------------------|
F|--------------------------------------------------------------------------------|
C|-0-xx-00--0-0-xx-00-0-0-13-12/3-xx-33-33-8-8-10-12-12-12-10-12-12-12------------|
G|-0-xx-00--0-0-xx-00-0-0-13-12/3-xx-33-33-8-8-10-12-12-12-10-12-12-12------------|
C|-0-xx-00--0-0-xx-00-0-0-13-12/3-xx-33-33-8-8-10-12-12-12-10-12-12-12------------|

Chorus:
D|----------------------------------------------------------------------------|
A|----------------------------------------------------------------------------|
F|----------------------------------------------------------------------------|
C|-0-00-00-7777-88/-3333-33-10101010-77---------------------------------------|
G|-0-00-00-7777-88/-3333-33-10101010-77---------------------------------------| x2
C|-0-00-00-7777-88/-3333-33-10101010-77---------------------------------------|

Interlude:
D|-----------------------------------------------------------------------------------------|
A|---------------------------------------------------------------------------------18-17---|
F|----------------17--------------------19-------------------17----------------------------|
C|-17-19-19-19-------19--17-19-19-19-------19--17-19-19-19------19--17-19-19-19-15---------|
G|-------------20--------------------20-------------------20-------------------------------|
C|-----------------------------------------------------------------------------------------|



Verse:
D|---------------------------------------------------------------------------------|
A|---------------------------------------------------------------------------------|
F|---------------------------------------------------------------------------------|
C|-0-x-x-00-00-12-12-10-12\-00-0-0-00-10-10-8-10\-0-00-0-00-888-777-555-333-5-7-8--|
G|-0-x-x-00-00-12-12-10-12\-00-0-0-00-10-10-8-10\-0-00-0-00-888-777-555-333-5-7-8--| x2
C|-0-x-x-00-00-12-12-10-12\-00-0-0-00-10-10-8-10\-0-00-0-00-888-777-555-333-5-7-8--|

Prechorus:
D|---------------------------------------------------------------------------|
A|---------------------------------------------------------------------------|
F|---------------------------------------------------------------------------|
C|-0-xx-00--0-0-xx-00-0-0-13-12-13/3-xx-33-33-3-xx-33-33---------------------|
G|-0-xx-00--0-0-xx-00-0-0-13-12-13/3-xx-33-33-3-xx-33-33---------------------|
C|-0-xx-00--0-0-xx-00-0-0-13-12-13/3-xx-33-33-3-xx-33-33---------------------|

D|--------------------------------------------------------------------------------|
A|--------------------------------------------------------------------------------|
F|--------------------------------------------------------------------------------|
C|-0-xx-00--0-0-xx-00-0-0-13-12/3-xx-33-33-8-8-10-12-12-12-10-12-12-12------------|
G|-0-xx-00--0-0-xx-00-0-0-13-12/3-xx-33-33-8-8-10-12-12-12-10-12-12-12------------|
C|-0-xx-00--0-0-xx-00-0-0-13-12/3-xx-33-33-8-8-10-12-12-12-10-12-12-12------------|


Chorus:
D|----------------------------------------------------------------------------|
A|----------------------------------------------------------------------------|
F|----------------------------------------------------------------------------|
C|-0-00-00-7777-88/-3333-33-10101010-77---------------------------------------|
G|-0-00-00-7777-88/-3333-33-10101010-77---------------------------------------| x2
C|-0-00-00-7777-88/-3333-33-10101010-77---------------------------------------|

Bridge:
D|-----------------------------------------------------------------------------------------|
A|-----------------------------------------------------------------------------------------|
F|-----------------------------------------------------------------------------------------|
C|-15-0-15-0-15-0-15-0-17-0-17-0-17-0-17-0-19-0-19-0-19-0-19-0-19-0-19-0-19-0-19-0---------|
G|-----------------------------------------------------------------------------------------|
C|-----------------------------------------------------------------------------------------|

D|-----------------------------------------------------------------------------------------|
A|-----------------------------------------------------------------------------------------|
F|-17---17---17---17-----------------------------------------------------------------------|
C|----0----0----0----0-17-0-17-0-17-0-17-0-15-0-15-0-15-0-15-0-----------------------------|
G|-----------------------------------------------------------------------------------------|
C|-----------------------------------------------------------------------------------------|


D|-----------------------------------------------------------------------------------------|
A|-----------------------------------------------------------------------------------------|
F|----------------17--------------------19-------------------17----------------------------|
C|-17-19-19-19-------19--17-19-19-19-------19--17-19-19-19------19--17-19-19-19-15-17-14---|
G|-------------20--------------------20-------------------20-------------------------------|
C|-----------------------------------------------------------------------------------------|

D|-----------------------------------------------------------------------------------------|
A|---------------------------------------------------------------------------------18-17---|
F|----------------17--------------------19-------------------17----------------------------|
C|-17-19-19-19-------19--17-19-19-19-------19--17-19-19-19------19--17-19-19-19-15---------|
G|-------------20--------------------20-------------------20-------------------------------|
C|-----------------------------------------------------------------------------------------|



Chorus:
D|----------------------------------------------------------------------------|
A|----------------------------------------------------------------------------|
F|----------------------------------------------------------------------------|
C|-0-00-00-7777-88/-3333-33-10101010-77---------------------------------------|
G|-0-00-00-7777-88/-3333-33-10101010-77---------------------------------------| 
C|-0-00-00-7777-88/-3333-33-10101010-77---------------------------------------|

            
            
Suggest correction
Creating personal tab
Creating personal tab
You can edit any tab online and save it as your Personal.

You can edit, replace or remove any tab part or add personal notes – all changes will be seen only by you.

Personal tabs can be accessed anytime from any device, even offline.
Learn more »
Give kudos to tab author, rate the tab!
1 2 3 4 5
comments
print report bad tab
4 comments total. Showing first comments.
0 reply
gotabrain4me 10 Aug 18, 2008 05:26 PM

almost. but its pretty good.
better than the other one thats up here.
there were a few things i could pick out that werent quite right, but they were close.

0 reply
THEguitarGOD789 10 Feb 18, 2009 12:46 PM

yeah i agree. still the best up here, which is why you get 5 *s

0 reply
rokrdude 100 Jun 15, 2009 04:41 PM

intro doesnt make sense to me

guest
You may want to rate the tab now too:
select rating
Wanna post a correction for this tab? Suggest correction