Oops, an error
Loading. Please wait.

Tuman bass

version 1
version 1

Whole song

Interactive

1,930 views 6 this week
no commentswrite comment
1 2 3 4 5
3 more votes to show rating
add to favorites
×
Save as Personal and add changes to this tab that will be seen only by you. Learn more ›
×
You can save this tab as Personal to edit and correct it or add notes. All changes will be seen only by you. Learn more »
launch autoscroll
font size
0
reset
guitar tuner
edit
Autoscroll
slow
fast
+/-
esc
set tempo
stop
Author
Difficulty
Bass tab for Tuman by Sektor Gaza. Don't search any difficulty cause there isn't 
Easy and cool to play, enjoy!

Tuning : standard.
Bass starts playing at (0.07).

Intro :
G-----------------------------------------------|
D-----------------------------------------------|
A---8-8--13-13--6-6--3-3--8-8--10-10--3-3--(3)--|
E-----------------------------------------------|


Main Riff :
G-----------------------------------------------|
D-----------------------------------------------|
A---3-3--3-3--8-8--8-8--10-10--10-10--3-3--3-3--|
E-----------------------------------------------|
                                             ^ 4th time (straight before chorus) you 
play this note and go to Riff #2

Riff #2 (Chorus) :
G-----------------------------------------------|
D-----------------------------------------------|
A---8-8--13-13--6-6--3-3------------------------|
E-----------------------------------------------|

Riff #3 (Chorus):
G-----------------------------------------------|
D-----------------------------------------------|
A---8-8--10-10--3-3-----------------------------|
E-----------------------------------------------|

Song composition :
Main riff x 4
Riff #2 x 3
Riff #3 x 1

etc...

And over and over again with a little change at the end when riff 3 comes 3 or 4 times, 
you don't need a drawing do you.

***Tabbed by Vikki Sixx.***

            
            
Suggest correction
Creating personal tab
Creating personal tab
You can edit any tab online and save it as your Personal.

You can edit, replace or remove any tab part or add personal notes – all changes will be seen only by you.

Personal tabs can be accessed anytime from any device, even offline.
Learn more »
Give kudos to tab author, rate the tab!
1 2 3 4 5
comments
print report bad tab
guest
You may want to rate the tab now too:
select rating
Wanna post a correction for this tab? Suggest correction