Oops, an error
Loading. Please wait.

Betray And Degrade tab

version 1
version 1

Whole song

by Seether
7,252 views 351 this week
5 commentsread comments
1 2 3 4 5
x 10
add to favorites
×
Save as Personal and add changes to this tab that will be seen only by you. Learn more ›
×
You can save this tab as Personal to edit and correct it or add notes. All changes will be seen only by you. Learn more »
launch autoscroll
font size
0
reset
how to read this tab
guitar tuner
edit
Autoscroll
slow
fast
+/-
esc
set tempo
stop
[Intro]
D|----|--------------------------------|--------------------------------|
A|----|--------------------------------|--------------------------------|
F|----|--------------------------------|--------------------------------|
C|----|--------------------------------|--------------------------------|
G|0---|2---2---x-x-0---2---2---x-x-0---|2---2---x-x-0---2---2---x-x-0---|
C|0---|2---2---x-x-0---2---2---x-x-0---|2---2---x-x-0---2---2---x-x-0---|
  PM-| PM-----|    PM---------|    PM----------|    PM---------|    PM-|

D|--------------------------------|----------------------------------|
A|--------------------------------|----------------------------------|
F|--------------------------------|----------------------------------|
C|--------------------------------|----------------------------------|(x2)
G|2/5-5---x-x-0---2/5-5---x-x-0---|2/5-5---x-x-0---------2-------0---|
C|2/5-5---x-x-0---2/5-5---x-x-0---|2/5-5---x-x-0---2/5-------3-------|
  PM-----|    PM---------|    PM----------|    PM-------------------|

D|--------------------------------|--------------------------------|
A|--------------------------------|--------------------------------|
F|--------------------------------|--------------------------------|
C|2---2---x-x-0---2---2---x-x-0---|2---2---x-x-0---2---2---x-x-0---|
G|2---2---x-x-0---2---2---x-x-0---|2---2---x-x-0---2---2---x-x-0---|
C|2---2---x-x-0---2---2---x-x-0---|2---2---x-x-0---2---2---x-x-0---|

D|--------------------------------|----------------------------------|
A|--------------------------------|----------------------------------|
F|--------------------------------|----------------------------------|
C|5---5---x-x-0---5---5---x-x-0---|5---5---x-x-0---------------------|(x2)
G|5---5---x-x-0---5---5---x-x-0---|5---5---x-x-0---------2-------0---|
C|5---5---x-x-0---5---5---x-x-0---|5---5---x-x-0---2/5-------3-------|

[Verse]
D|--------------------------------|--------------------------------|
A|--------------------------------|--------------------------------|
F|--------------------------------|--------------------------------|
C|--------------------------------|--------------------------------|
G|2---2---x-x-0---2---2---x-x-0---|2---2---x-x-0---2---2---x-x-0---|
C|2---2---x-x-0---2---2---x-x-0---|2---2---x-x-0---2---2---x-x-0---|
  PM-----|    PM---------|    PM----------|    PM---------|    PM-|

D|--------------------------------|----------------------------------|
A|--------------------------------|----------------------------------|
F|--------------------------------|----------------------------------|
C|--------------------------------|----------------------------------|(x2)
G|2/5-5---x-x-0---2/5-5---x-x-0---|2/5-5---x-x-0---------2-------0---|
C|2/5-5---x-x-0---2/5-5---x-x-0---|2/5-5---x-x-0---2/5-------3-------|
  PM-----|    PM---------|    PM----------|    PM-|

[Pre-Chorus]
D|----------------------------------------|------------------------------------|
A|----------------------------------------|------------------------------------|
F|----------------------------------------|------------------------------------|
C|10---10---10---10---10---10---10---10---|7---7---7---7---12---12---12---12---|
G|8----8----8----8----8----8----8----8----|5---5---5---5---10---10---10---10---|
C|8----8----8----8----8----8----8----8----|5---5---5---5---10---10---10---10---|


D|--------------------------------|--------------------------------|
A|--------------------------------|--------------------------------|
F|--------------------------------|--------------------------------|
C|--------------------------------|--------------------------------|
G|2---2---x-x-0---2---2---x-x-0---|2---2---x-x-0---2---2---x-x-0---|
C|2---2---x-x-0---2---2---x-x-0---|2---2---x-x-0---2---2---x-x-0---|
  PM-----|    PM---------|    PM----------|    PM---------|    PM-|

D|----------------------------------------|------------------------------------|
A|----------------------------------------|------------------------------------|
F|----------------------------------------|------------------------------------|
C|10---10---10---10---10---10---10---10---|7---7---7---7---12---12---12---12---|
G|8----8----8----8----8----8----8----8----|5---5---5---5---10---10---10---10---|
C|8----8----8----8----8----8----8----8----|5---5---5---5---10---10---10---10---|


[Chorus]                                             1st Ending       2nd Ending
D|----------------|----------------|----------------|----------------|----------------|
A|----------------|----------------|----------------|----------------|----------------|
F|9-9-9-9-9-9-9-9-|----------------|5-5-5-5-5-5-5-5-|----------------|6-6-6-6-6-6-6-6-|
C|9-9-9-9-9-9-9-9-|5-5-5-5-5-5-5-5-|5-5-5-5-5-5-5-5-|7-7-7-7-7-7-7-7-|6-6-6-6-6-6-6-6-|
G|7-7-7-7-7-7-7-7-|5-5-5-5-5-5-5-5-|3-3-3-3-3-3-3-3-|7-7-7-7-7-7-7-7-|4-4-4-4-4-4-4-4-|
C|----------------|5-5-5-5-5-5-5-5-|----------------|7-7-7-7-7-7-7-7-|----------------|

[Pre-Verse]
D|--------------------------------|----------------------------------|
A|--------------------------------|----------------------------------|
F|--------5/7-7-----------5/7-7---|--------5/7-7---------------------|
C|2---2---x-x-x---2---2---x-x-x---|2---2---x-x-x---------------------|
G|2---2---3/5-5---2---2---3/5-5---|2---2---3/5-5---------2-------0---|
C|2---2-----------2---2-----------|2---2-----------2/5-------3-------|

[Verse]
D|--------------------------------|--------------------------------|
A|--------------------------------|--------------------------------|
F|--------------------------------|--------------------------------|
C|--------------------------------|--------------------------------|
G|2---2---x-x-0---2---2---x-x-0---|2---2---x-x-0---2---2---x-x-0---|
C|2---2---x-x-0---2---2---x-x-0---|2---2---x-x-0---2---2---x-x-0---|
  PM-----|    PM---------|    PM----------|    PM---------|    PM-|

D|--------------------------------|----------------------------------|
A|--------------------------------|----------------------------------|
F|--------------------------------|----------------------------------|
C|--------------------------------|----------------------------------|(x2)
G|2/5-5---x-x-0---2/5-5---x-x-0---|2/5-5---x-x-0---------2-------0---|
C|2/5-5---x-x-0---2/5-5---x-x-0---|2/5-5---x-x-0---2/5-------3-------|
  PM-----|    PM---------|    PM----------|    PM-|

[Pre-Chorus]
D|----------------------------------------|------------------------------------|
A|----------------------------------------|------------------------------------|
F|----------------------------------------|------------------------------------|
C|10---10---10---10---10---10---10---10---|7---7---7---7---12---12---12---12---|
G|8----8----8----8----8----8----8----8----|5---5---5---5---10---10---10---10---|
C|8----8----8----8----8----8----8----8----|5---5---5---5---10---10---10---10---|


D|--------------------------------|--------------------------------|
A|--------------------------------|--------------------------------|
F|--------------------------------|--------------------------------|
C|--------------------------------|--------------------------------|
G|2---2---x-x-0---2---2---x-x-0---|2---2---x-x-0---2---2---x-x-0---|
C|2---2---x-x-0---2---2---x-x-0---|2---2---x-x-0---2---2---x-x-0---|
  PM-----|    PM---------|    PM----------|    PM---------|    PM-|

D|----------------------------------------|------------------------------------|
A|----------------------------------------|------------------------------------|
F|----------------------------------------|------------------------------------|
C|10---10---10---10---10---10---10---10---|7---7---7---7---12---12---12---12---|
G|8----8----8----8----8----8----8----8----|5---5---5---5---10---10---10---10---|
C|8----8----8----8----8----8----8----8----|5---5---5---5---10---10---10---10---|

[Chorus]                                             1st Ending       2nd Ending
D|----------------|----------------|----------------|----------------|----------------|
A|----------------|----------------|----------------|----------------|----------------|
F|9-9-9-9-9-9-9-9-|----------------|5-5-5-5-5-5-5-5-|----------------|6-6-6-6-6-6-6-6-|
C|9-9-9-9-9-9-9-9-|5-5-5-5-5-5-5-5-|5-5-5-5-5-5-5-5-|7-7-7-7-7-7-7-7-|6-6-6-6-6-6-6-6-|
G|7-7-7-7-7-7-7-7-|5-5-5-5-5-5-5-5-|3-3-3-3-3-3-3-3-|7-7-7-7-7-7-7-7-|4-4-4-4-4-4-4-4-|
C|----------------|5-5-5-5-5-5-5-5-|----------------|7-7-7-7-7-7-7-7-|----------------|

[Pre-Bridge]
D|--------------------------------|-------------------------|
A|--------------------------------|-------------------------|
F|--------5/7-7-----------5/7-7---|-------5/7-7-------------|
C|2---2---x-x-x---2---2---x-x-x---|2--2---x-x-x---------0---|
G|2---2---3/5-5---2---2---3/5-5---|2--2---3/5-5---0-0-0-0---|
C|2---2-----------2---2-----------|2--2-----------0-0-0-0---|
                                                  PM---|

[Bridge/Outro]
D|------------------------------|------------------------------|
A|------------------------------|------------------------------|
F|------------------------------|----------------------7-7-7---|
C|2---2---5h6p5-3---3---3/5-5---|2---2---5h6p5-3---3---7-7-7---|(x4)
G|2---2---5h6p5-3---3---3/5-5---|2---2---5h6p5-3---3---5-5-5---|
C|2---2---5h6p5-3---3---3/5-5---|2---2---5h6p5-3---3-----------|

[Mini Verse]
D|--------------------------------|----------------------------------|
A|--------------------------------|----------------------------------|
F|--------------------------------|----------------------------------|
C|--------------------------------|----------------------------------|
G|2---2---x-x-0---2---2---x-x-0---|2---2---x-x-0---------2-------0---|
C|2---2---x-x-0---2---2---x-x-0---|2---2---x-x-0---2/5-------3-------|
  PM-----|    PM---------|    PM----------|    PM-|

D|--------------------------------|----------------------------------|
A|--------------------------------|----------------------------------|
F|--------------------------------|----------------------------------|
C|--------------------------------|----------------------------------|(x2)
G|2/5-5---x-x-0---2/5-5---x-x-0---|2/5-5---x-x-0---------2-------0---|
C|2/5-5---x-x-0---2/5-5---x-x-0---|2/5-5---x-x-0---2/5-------3-------|
  PM-----|    PM---------|    PM----------|    PM-|

[Chorus]                                             1st Ending       2nd Ending
D|----------------|----------------|----------------|----------------|----------------|
A|----------------|----------------|----------------|----------------|----------------|
F|9-9-9-9-9-9-9-9-|----------------|5-5-5-5-5-5-5-5-|----------------|6-6-6-6-6-6-6-6-|
C|9-9-9-9-9-9-9-9-|5-5-5-5-5-5-5-5-|5-5-5-5-5-5-5-5-|7-7-7-7-7-7-7-7-|6-6-6-6-6-6-6-6-|
G|7-7-7-7-7-7-7-7-|5-5-5-5-5-5-5-5-|3-3-3-3-3-3-3-3-|7-7-7-7-7-7-7-7-|4-4-4-4-4-4-4-4-|
C|----------------|5-5-5-5-5-5-5-5-|----------------|7-7-7-7-7-7-7-7-|----------------|

[Bridge/Outro]
D|------------------------------|------------------------------|
A|------------------------------|------------------------------|
F|------------------------------|----------------------7-7-7---|
C|2---2---5h6p5-3---3---3/5-5---|2---2---5h6p5-3---3---7-7-7---|(x4)
G|2---2---5h6p5-3---3---3/5-5---|2---2---5h6p5-3---3---5-5-5---|
C|2---2---5h6p5-3---3---3/5-5---|2---2---5h6p5-3---3-----------|

***********************************

| PM  Palm mute
| b   Bend
| x   Dead note
| h   Hammer on
| p   Pull off
| /   Slide up

***********************************

            
            
Suggest correction
Creating personal tab
Creating personal tab
You can edit any tab online and save it as your Personal.

You can edit, replace or remove any tab part or add personal notes – all changes will be seen only by you.

Personal tabs can be accessed anytime from any device, even offline.
Learn more »
comments
print report bad tab
5 comments total. Showing first comments.
+2 reply
vet-cher 57 May 17, 2017 08:40 AM

Nice job man

+2 reply
ATalmidim 31 Jul 14, 2017 08:26 AM

thanks so much! favorite band, new favorite song. 🤘🤙

0 reply
axelmini007 10 Aug 31, 2017 02:51 AM

No solo?

guest
You may want to rate the tab now too:
select rating
Wanna post a correction for this tab? Suggest correction