Oops, an error
Loading. Please wait.
We have an official Fake It tab made by UG professional guitarists. Check out the tab »
×
by Seether
70,333 views 36 this week
10 commentsread comments
1 2 3 4 5
x 25
add to favorites
×
Save as Personal and add changes to this tab that will be seen only by you. Learn more ›
×
You can save this tab as Personal to edit and correct it or add notes. All changes will be seen only by you. Learn more »
launch autoscroll
font size
0
reset
how to read this tab
guitar tuner
edit
Autoscroll
slow
fast
+/-
esc
set tempo
stop
Fake It
Finding Beauty In Negative Spaces


Drop C Tuning

1=D 4=C
2=A 5=G
3=F 6=C

D|-----------------------------------|
A|--3-3--3---------------------------|
F|--2-2--2---------5-5---------------|
C|--0-0--0-3-3--0-5-5-0--5-5-3-------|
G|--0-0--0-3-3--0-3-3-0--5-5-3-------|
C|--0-0--0-3-3--0------0--5-5-3------|


[Pre-Chorus]

D|-----------------------------------------------------------------|
A|-----------------------------------------------------------------|
F|-----------------------------------------------------------------|
C|--0-0--0-0-0--0-3-3-0-5-5-5--0-0--0-0-0--0-3-3-0-5-0-5-----------|
G|--0-0--0-0-0--0-3-3-0-5-5-3--0-0--0-0-0--0-3-3-0-5-0-3-----------|
C|--0-0--0-0-0--0-3-3-0-5-5----0-0--0-0-0--0-3-3-0-5-0-------------|


[Chorus]

D|---------------------------------------------------------------------|
A|---------------------------------------------------------------------|
F|---------------------------------------------------------------------|
C|--0-0--0-0-0--0-3-3-0-5-5-5--0--0-0-3--3-3--7-7-5-7-5-3-0------------|
G|--0-0--0-0-0--0-3-3-0-5-5-3--0--0-0-3--3-3--7-7-5-7-5-3-0------------|
C|--0-0--0-0-0--0-3-3-0-5-5----0--0-0-3--3-3--7-7-5-7-5-3-0------------|


[Chorus] 
(continued...)

During second verse palm mute, add lib of open D chord when needed
D|---------------------------------------------------|
A|---------------------------------------------------|
F|---------------------------------------------------|
C|--3-3-3-3--5-5-5-5--0-0-0-0--7-7-5-7-5-3-0---------|
G|--3-3-3-3--3-3-3-3--0-0-0-0--7-7-5-7-5-3-0---------|
C|--3-3-3-3------------0-0-0-0--7-7-5-7-5-3-0--------|


[Bridge]

 (Guitar 1)
D|--------------------------20~--20~--20~--20~----------------------------|
A|--18~--18~--18~--18~----------------------18~--18~--18~--18~------------|
F|------------------------------------------------------------------------|
C|------------------------------------------------------------------------|
G|------------------------------------------------------------------------|
C|------------------------------------------------------------------------|

 (Guitar 2)
D|-----------------------------------------20~--20~--20~--20~----------------------------|
A|-----------------18~--18~--18~--18~----------------------18~--18~--18~--18~------------|
F|--12-10--9--14-------------------------------------------------------------------------|
C|---------------------------------------------------------------------------------------|
G|--10--8--7--12-------------------------------------------------------------------------|
C|---------------------------------------------------------------------------------------|

 (Guitar 2 continued...)
D|---------------------------------------------------------------------------------|
A|---------------------------------------------------------------------------------|
F|--14-14-14--12-12-12-10-10-10--9-9-9--9--10-9--6-7~--6-7~------------------------|
C|--------------------------------------------------------------------5-7-5--------|
G|--12-12-12--10-10-10--8--8--8--7-7-7---------------------------------7-5---------|
C|---------------------------------------------------------------------------------|

 (Guitar 2 continued...)
D|-----------------------------------------------------------------------|
A|---------------------------6-7--s10~-----------------------------------|
F|--9--10-9--6-7~--6-7~------------9--10-9--6-7~--6-7~-------------------|
C|-----------------------------------------------------------5-7-5-------|
G|-----------------------------------------------------------------7-5---|
C|-----------------------------------------------------------------------|

 (Guitar 2 continued...)
D|--------------------------------------------------------------14-15~----------|
A|-----------------------8-9-9s\10--9-10--10s\14-15----15~----------15~---------|
F|--9--10-9--6-7~--6-7~---------------------------------------------------------|
C|------------------------------------------------------------------------------|
G|------------------------------------------------------------------------------|
C|------------------------------------------------------------------------------|

 (Guitar 2 continued...)
D|---------------------------------------|
A|--3--3-3-------------------------------|
F|--2--2-2-------------------------------|
C|--0--0-0--5--5-5--5--5-5--3--3-3-------|
G|--0--0-0--3--3-3--5--5-5--3--3-3-------|
C|--0--0-0-----------5--5-5--3--3-3------|

 (Guitar 1, riff 2)
D|-----------------------------------------------------------------------|
A|---------------------------------------------------------6-7--s10~-----|
F|--9--10-9--6-7~--6-7~-----------9--10-9--6-7~--6-7~--------------------|
C|----------------------------5-7-5--------------------------------------|
G|----------------------------------7-5----------------------------------|
C|-----------------------------------------------------------------------|


[Outro]

 (Guitar 2, play over outro chorus)
D|--------------------------------------|
A|--------------------------------------|
F|--9--10-9--6-7~--6-7~-----------------|
C|-------------------------5-7-5--------|
G|--------------------------------7-5---|
C|--------------------------------------|
Outro (Guitar 2 continued...)



************************************

| ~  Vibrato
| s  Slide

************************************

            
            
Suggest correction
Creating personal tab
Creating personal tab
You can edit any tab online and save it as your Personal.

You can edit, replace or remove any tab part or add personal notes – all changes will be seen only by you.

Personal tabs can be accessed anytime from any device, even offline.
Learn more »
comments
print report bad tab
10 comments total. Showing first comments. show 1 bad comment
0 reply
bgbnbigben 83 Jan 13, 2008 12:23 AM

The tab is perfect, just the layout could have taken a minute more to be perfect. otherwise, 5 stars for the notes.
for
the rest of the people who are reading this, the notes serve as a guide. do not take the timing at face value

0 reply
Logan_B 10 Jan 27, 2008 01:47 PM

WRONG! look at the new issue of Guitar World magazine its dead on

guest
You may want to rate the tab now too:
select rating
Wanna post a correction for this tab? Suggest correction