Oops, an error
Loading. Please wait.
We have an official Fine Again tab made by UG professional guitarists. Check out the tab »
×
by Seether
193,513 views 354 this week
18 commentsread comments
1 2 3 4 5
x 80
add to favorites
×
Save as Personal and add changes to this tab that will be seen only by you. Learn more ›
×
You can save this tab as Personal to edit and correct it or add notes. All changes will be seen only by you. Learn more »
launch autoscroll
font size
0
reset
transpose
0
reset
simplify chords
display chords
guitar tuner
edit
Autoscroll
slow
fast
+/-
esc
set tempo
stop
Author
Strumming
There is no strumming pattern for this song yet. and get +5 IQ
chords used: F# - 244xxx
             A - 577xxx
             Em - 0221xx
             D - x577xx
             Bm - x244xx
             E5 - x799xx


[Intro]

e|---------------------------------------------------------------|
B|---------------------------------------------------------------|
G|--------------------1------7-7--------------------1------------|
D|------4-------7-------2----7-7------4-------7-------2----7-7---|
A|----4---4---7---7-------2--5-5----4---4---7---7-------2--7-7---|
E|--2-------5-------0-------------2-------5-------0--------5-5---|


[Verse]

F#            A               E5
It seems like every day’s the same
    D        F#   A            E5       D
and I’m left to discover on my own
F#            A             E5
It seems like everything is gray
    D          F#    A       E5     D
and there’s no color to behold
F#    A       E    D       F#   A  
    E         D
They say it’s over and I’m fine again, yeah
F#  A       E     D              F#  
A E     D
Try to stay sober feels like I’m dying here


[Chorus]

(with distortion):

F#    D   Bm
And I am aware now of how
E                     F#   D
everything’s gonna be fine one day
Bm        E      F#
Too late, I’m in hell
F# D       Bm
I  am prepared now,
      E                   F#
seems everyone’s gonna be fine
D       Bm        E       F#
One day too late, just as well


[Verse]

    Bm          A           E       D D
e|-----------------------------------------|
B|-----------------------------------------|
G|-----------------------------1-----------|
D|--------4--------------7------2---7--7---|
A|-----4-----4--------7-----7----2--7--7---|
E|--2-----------5-------------0-----5--5---|

     I feel the dream in me expire and there’s
F#      A            E5       D
no one left to blame it on
F#         A          E5
I hear you label me a liar
 D       F#         A      E5              D
‘cause I can’t seem to get this through
F#  A        E     D     F#   A    
  E       D
You say it’s over, I can sigh again, yeah
F#  A           E     D        F#  
A E     D
Why try to stay sober when I’m dying here


[Chorus] 

(with distortion):

F#    D   Bm
And I am aware now of how
E                     F#   D
everything’s gonna be fine one day
Bm        E      F#
Too late, I’m in hell
F# D       Bm
I  am prepared now,
      E                   F#
seems everyone’s gonna be fine
D       Bm        E       F#
One day too late; just as well

e|-----------------------------|
B|-----------------------------|
G|-----------------------------|
D|-----------------------------|
A|--2/5--------5/2-------------|
E|-----------------------------|
      And I’m not scared now.

e|-----------------------------|
B|-----------------------------|
G|-----------------------------|
D|-----------------------------|
A|--2/5--------5/2-------------|
E|-----------------------------|
      I must assure you, (you're never gonna get away

e|-----------------------------|
B|-----------------------------|
G|-----------------------------|
D|-----------------------------|
A|--2/5--------5/2-------------|
E|-----------------------------|
      And I’m not scared now.

e|-----------------------------|
B|-----------------------------|
G|-----------------------------|
D|-----------------------------|
A|--2/5--------5/2-------------|
E|-----------------------------|

      And I’m not scared now. No…


(without singing and distortion)  F#   D    Bm    E
                                  F#   D    Bm    E

[Chorus]

F# D    Bm
I  am aware now of how
E                     F#   D
everything’s gonna be fine one day
Bm        E      F#
Too late, I’m in hell
F# D      Bm
I  am prepared now
      E                   F#
seems everyone’s gonna be fine
D       Bm        E       F#
One day too late, just as well
F# A      Bm
I  am prepared now,
      E                     F#   D
seems everything’s gonna be fine for me
Bm      E     F#
For me; for myself.
D       Bm      E     F#
For me, for me, for myself
D       Bm      E     F#
For me, for me, for myself
F# D      Bm       E     F#
I  am prepared now for myself
F# D      Bm        E        F#
I  am prepared now, and I am fiiiiiiiiin...again


that's it.  if you want the lead part, i'll try to figure that out and post it for you,
but maybe not.  i'll try.  have fun with this...it's a great song.  if you have any
questions, email me at JiMMy-TAp@wasid.com   ENJOY!!!



************************************

| /  Slide up

************************************

            
            
Suggest correction
Creating personal tab
Creating personal tab
You can edit any tab online and save it as your Personal.

You can edit, replace or remove any tab part or add personal notes – all changes will be seen only by you.

Personal tabs can be accessed anytime from any device, even offline.
Learn more »
comments
print report bad tab
18 comments total. Showing first comments.
0 reply
zeroisgreatman 2,153 Sep 30, 2002 08:00 PM

great tab dude, but i need some lead ok

+2 reply
SeetherGuy 90 Apr 23, 2003 08:00 PM

the intro is totaly wrong,and the chous is wrong

0 reply
Tijy 20 Oct 06, 2003 08:00 PM

hi uh zero? did u happen to notice this is a CHORD tab? thnx ta!

guest
You may want to rate the tab now too:
select rating
Wanna post a correction for this tab? Suggest correction