Oops, an error
Loading. Please wait.
82,238 views 39 this week
29 commentsread comments
1 2 3 4 5
x 36
add to favorites
×
Save as Personal and add changes to this tab that will be seen only by you. Learn more ›
×
You can save this tab as Personal to edit and correct it or add notes. All changes will be seen only by you. Learn more »
launch autoscroll
font size
0
reset
how to read this tab
guitar tuner
edit
Autoscroll
slow
fast
+/-
esc
set tempo
stop
Author
Artist: Seether
Title: Fine Again
Album:
Transcribed by: lee martin
Tuning: Drop-D

/-slide

Intro x2:
(guitar 1)
                        ^ v
e-----2-------0---------0-----------------------
b-----------------------------------------------
g-----------------------1-----------------------
D-----4---------7-x-x-----2-2/0-0-0-------------
A---4---------7---x-x-------2/0-0-0-------------
D-4-----4/7-7-----x-x-2-----2/0-0-0-------------

(guitar 2)
()-guitar 1 *hint for starting point
e--------2-4-0-4-4-0-4-5---4-0-4-5-0-5-4-0-4-2--
b-----------------------------------------------
g-----------------------------------------------
D-----------------------------------------------
A----(4)----------------------------------------
E-(4)-------------------------------------------

Verse:
(Guitar 1&2-strumming)
  F# Am E  D
e-----------------------------------------------
b-----------------------------------------------
g-----------------------------------------------
D-4--7--2--0------------------------------------
A-4--7--2--0------------------------------------
E-4--7--2--0------------------------------------

Pre-chorus:
(guitar 1)
*same as the verse)

(guitar 2)
e-----9-7---9-7—-2-4-0-4-4-0-4-5—-4-0-4-5--0-4-5--0-4-2---
b---------------------------------------------------------
g---------------------------------------------------------
D---------------------------------------------------------
A---------------------------------------------------------
E---------------------------------------------------------

Chorus:
(guitar 1&2-strumming)

e-----------------------------------------------
b-----------------------------------------------
g-----------------------------------------------
D--4--0--9--2-----------------------------------
A--4--0--9--2-----------------------------------
E--4--0--9--2-----------------------------------

Verse 2:
(guitar 1)

e-----------------------------------------------
b-----------------------------------------------
g-----------------------1-----------------------
D-----4---------7-x-x-----2-2/0-0-0-------------
A---4---------7---x-x-------2/0-0-0-------------
D-4-----4/7-7-----x-x-2-----2/0-0-0-------------

--back to strumming…

Pre-Chorus

Chorus

Bridge:
(guitar 1)

-x4
e-----------------------------------------------
b-----------------------------------------------
g-----------------------------------------------
D-----------------------------------------------
A-----------------------------------------------
D-9/12—12\9-------------------------------------

(guitar 1-strum chorus)
(guitar 2-)

-until ending
e-9----10---------------------------------------
b---10----12------------------------------------
g-----------------------------------------------
D-----------------------------------------------
A-----------------------------------------------
D-----------------------------------------------
-during the last 2 times he will sing the chorus, 
 you can just play with the scale…it doesn’t have to be 
 precisely like this…its you choice.

If you have any questions e-mail me at---mbanaria@hotmail.com

Tnx.

            
            
Suggest correction
Creating personal tab
Creating personal tab
You can edit any tab online and save it as your Personal.

You can edit, replace or remove any tab part or add personal notes – all changes will be seen only by you.

Personal tabs can be accessed anytime from any device, even offline.
Learn more »
comments
print report bad tab
29 comments total. Showing first comments.
0 reply
twstdprcptn 110 Jun 22, 2004 08:00 PM

intro is as follows:

---------------------
---------------------
-------------------7-
----4-----7---6----7-
---4-----7-----7---5-
--2---2/5--5-0---0-5-

0 reply
playgtr055 40 May 10, 2005 08:00 PM

verse is as follows:

-----------------------
-----------------------
---------------7-----*-
--4----7---2---7-----*-
--4----7---2---5-------
--2----5---0-----------

chorus is as follows:

------------------------------------
------------------------------------
---------7-7--------7-------------*-
--xx-xx--7-7----4---7---9--2--------
--xx-xx--5-5----4---5---9--2------*-
--xx-xx---------2---5---7--0--------

listen for timing and rythem but those are the exact tablature.

twstdprcptn, that is not right...the original tab is fine.

0 reply
ChevelleINC 10 Jun 22, 2005 08:00 PM

Great Tab.....tuning though...song is done with a 7 string..

b e a d g b e, chords, etc. are all the same, just down one string

guest
You may want to rate the tab now too:
select rating
Wanna post a correction for this tab? Suggest correction