Oops, an error
Loading. Please wait.

Let You Down tab

version 1
version 1

Whole song

Interactive

by Seether
9,223 views 132 this week
10 commentsread comments
1 2 3 4 5
x 16
add to favorites
×
Save as Personal and add changes to this tab that will be seen only by you. Learn more ›
×
You can save this tab as Personal to edit and correct it or add notes. All changes will be seen only by you. Learn more »
launch autoscroll
font size
0
reset
how to read this tab
guitar tuner
edit
Autoscroll
slow
fast
+/-
esc
set tempo
stop
[Intro]

E|--------------------------------|-------------------------------|
B|--------------------------------|-------------------------------|
G|--------------------------------|-------------------------------|
D|--------------------------------|-------------------------------|
A|--2-----2-2---0---0-2---2-2---0-|-0-2---2-2---0-----------------|
D|--2-----2-2---0---0-2---2-2---0-|-0-2---2-2---0-2/5---0-5-7-5p0-|
    .     . .   .   . .   . .   .   . .   . .   . . .   . . . . 

E|--------------------------------|-------------------------------|
B|--------------------------------|-------------------------------|
G|--------------------------------|-------------------------------|
D|--------------------------------|-------------------------------|
A|--2-----2-2---0---0-2---2-2---0-|-0-2---2-2---0-----------------|
D|--2-----2-2---0---0-2---2-2---0-|-0-2---2-2---0---2/5b---0------|
    .     . .   .   . .   . .   .   . .   . .   .    

E|----------------------------|-----------------------------|
B|----------------------------|-----------------------------|
G|----------------------------|-----------------------------|
D|--2-----x-x-0---2-----x-x-0-|-2-----x-x-0---5---0-5-7-5p0-|
A|--2-----x-x-0---2-----x-x-0-|-2-----x-x-0---5---0-5-7-5p0-|
D|--2-----x-x-0---2-----x-x-0-|-2-----x-x-0---5---0-5-7-5p0-|

E|----------------------------|-----------------------------|
B|----------------------------|-----------------------------|
G|----------------------------|-----------------------------|
D|--2-----x-x-0---2-----x-x-0-|-2-----x-x-0---5-----0-------|
A|--2-----x-x-0---2-----x-x-0-|-2-----x-x-0---5-----0-------|
D|--2-----x-x-0---2-----x-x-0-|-2-----x-x-0---5-----0-------|


[Verse]

E|--------------------------------|-------------------------------|
B|--------------------------------|-------------------------------|
G|--------------------------------|-------------------------------|
D|--------------------------------|-------------------------------|
A|--2-----2-2---0---0-2---2-2---0-|-0-2---2-2---0-----------------|
D|--2-----2-2---0---0-2---2-2---0-|-0-2---2-2---0-2/5---0-5-7-5p0-|
    .     . .   .   . .   . .   .   . .   . .   . 

E|--------------------------------|-------------------------------|
B|--------------------------------|-------------------------------|
G|--------------------------------|-------------------------------|
D|--------------------------------|-------------------------------|
A|--2-----2-2---0---0-2---2-2---0-|-0-2---2-2---0-----------------|
D|--2-----2-2---0---0-2---2-2---0-|-0-2---2-2---0---2/5b---0------|
    .     . .   .   . .   . .   .   . .   . .   .    


[Chorus]

E|-------------------------------------|---------------------------------|
B|-------------------------------------|---------------------------------|
G|--9-9-9-9-9-9-9-9-9-9-9-9-9/12-12-12-|-7-7-7-7-7-7-7-7-7-7-7-7-7/9-9-9-|
D|--9-9-9-9-9-9-9-9-9-9-9-9-9/12-12-12-|-7-7-7-7-7-7-7-7-7-7-7-7-7/9-9-9-|
A|--7-7-7-7-7-7-7-7-7-7-7-7-7/10-10-10-|-5-5-5-5-5-5-5-5-5-5-5-5-5/7-7-7-|
D|-------------------------------------|---------------------------------|

E|----------------------------------|---------------------------------|
B|----------------------------------|---------------------------------|
G|--5-5-5-5-5-5-5-5-5-5-5-5-5/7-7-7-|---------------------------------|
D|--5-5-5-5-5-5-5-5-5-5-5-5-5/7-7-7-|-7-7-7-7-7-7-7-7-7-7-7-7-7\5-5-5-|
A|--3-3-3-3-3-3-3-3-3-3-3-3-3/5-5-5-|-7-7-7-7-7-7-7-7-7-7-7-7-7\5-5-5-|
D|----------------------------------|-7-7-7-7-7-7-7-7-7-7-7-7-7\5-5-5-|


E|-------------------------------------|---------------------------------|
B|-------------------------------------|---------------------------------|
G|--9-9-9-9-9-9-9-9-9-9-9-9-9/12-12-12-|-7-7-7-7-7-7-7-7-7-7-7-7-7/9-9-9-|
D|--9-9-9-9-9-9-9-9-9-9-9-9-9/12-12-12-|-7-7-7-7-7-7-7-7-7-7-7-7-7/9-9-9-|
A|--7-7-7-7-7-7-7-7-7-7-7-7-7/10-10-10-|-5-5-5-5-5-5-5-5-5-5-5-5-5/7-7-7-|
D|-------------------------------------|---------------------------------|

E|----------------------------------|---------------------------------|
B|----------------------------------|---------------------------------|
G|--5-5-5-5-5-5-5-5-5-5-5-5-5/7-7-7-|---------------------------------|
D|--5-5-5-5-5-5-5-5-5-5-5-5-5/7-7-7-|-7-7-7-7-7-7-7-7-7-7-7-7-7\8-8-8-|
A|--3-3-3-3-3-3-3-3-3-3-3-3-3/5-5-5-|-7-7-7-7-7-7-7-7-7-7-7-7-7\8-8-8-|
D|----------------------------------|-7-7-7-7-7-7-7-7-7-7-7-7-7\8-8-8-|


[Bridge]

E|--------------------------------|--------------------------------|
B|--------------------------------|--------------------------------|
G|--------------------------------|--------------------------------|
D|--------------------------------|------------------------x-x-x-x-|
A|--------------------------------|------------------------x-x-x-x-|
D|--5p0-5p0-5/8b---2p0-2p0-2/5--0-|-5p0-5p0-5/8b---2p0-2p0-x-x-x-x-|

E|--------------------------------|--------------------------------|
B|--------------------------------|--------------------------------|
G|--------------------------------|--------------------------------|
D|--------------------------------|--------------------------------|
A|--------------------------------|--------------------------------|
D|--5p0-5p0-5/8b---2p0-2p0-2/5--0-|-5p0-5p0-5/8b---2p0-2p0---------|


E|--------------------------------|-------------------------------|
B|--------------------------------|-------------------------------|
G|--------------------------------|-------------------------------|
D|--5p0-5p0-5/8----2p0-2p0-2/5--0-|-5p0-5p0-5/8----2p0-2p0-2/5--0-|
A|--5p0-5p0-5/8----2p0-2p0-2/5--0-|-5p0-5p0-5/8----2p0-2p0-2/5--0-|
D|--5p0-5p0-5/8----2p0-2p0-2/5--0-|-5p0-5p0-5/8----2p0-2p0-2/5--0-|

E|--------------------------------|-------------------------------|
B|--------------------------------|-------------------------------|
G|--------------------------------|-------------------------------|
D|--5p0-5p0-5/8----2p0-2p0-2/5--0-|-5p0-5p0-5/8----2p0-2p0--------|
A|--5p0-5p0-5/8----2p0-2p0-2/5--0-|-5p0-5p0-5/8----2p0-2p0--------|
D|--5p0-5p0-5/8----2p0-2p0-2/5--0-|-5p0-5p0-5/8----2p0-2p0--------|


E|--------------------------------|-------------------------------|
B|--------------------------------|-------------------------------|
G|--------------------------------|-------------------------------|
D|--5p0-5p0-5/8----2p0-2p0-2/5--0-|-5p0-5p0-5/8----2p0-2p0-2/5--0-|
A|--5p0-5p0-5/8----2p0-2p0-2/5--0-|-5p0-5p0-5/8----2p0-2p0-2/5--0-|
D|--5p0-5p0-5/8----2p0-2p0-2/5--0-|-5p0-5p0-5/8----2p0-2p0-2/5--0-|

E|--------------------------------|--------------------------------|
B|--------------------------------|--------------------------------|
G|--------------------------------|--------------------------------|
D|--5p0-5p0-5/8----2p0-2p0-2/5--0-|-5p0-5p0-5/8----2p0-2p0-x-x-x-x-|
A|--5p0-5p0-5/8----2p0-2p0-2/5--0-|-5p0-5p0-5/8----2p0-2p0-x-x-x-x-|
D|--5p0-5p0-5/8----2p0-2p0-2/5--0-|-5p0-5p0-5/8----2p0-2p0-x-x-x-x-|


***********************************
| .   Palm mute
| b   Bend
| x   Dead note
| h   Hammer on
| p   Pull off
| /   Slide up
| \   Slide Down
***********************************

            
            
Suggest correction
Creating personal tab
Creating personal tab
You can edit any tab online and save it as your Personal.

You can edit, replace or remove any tab part or add personal notes – all changes will be seen only by you.

Personal tabs can be accessed anytime from any device, even offline.
Learn more »
comments
print report bad tab
10 comments total. Showing first comments.
+3 reply
FactorOfLife 76 Feb 24, 2017 01:21 PM

Btw the harmonics at the beginning are on the 12th fret of the high E and B strings

0 reply
tommynski 10 Mar 10, 2017 11:37 AM

Awesome job!! And this song is already in my top 10 Seether songs

0 reply
evanoffjordan 10 Apr 05, 2017 04:10 PM

I'm pretty sure the slide should be on the 0-5 on the fret, not 5-0.

guest
You may want to rate the tab now too:
select rating
Wanna post a correction for this tab? Suggest correction