Oops, an error
Loading. Please wait.

Master Of Disaster tab

version 2
version 2

Whole song

by Seether
85 views 9 this week
no commentswrite comment
1 2 3 4 5
2 more votes to show rating
add to favorites
×
Save as Personal and add changes to this tab that will be seen only by you. Learn more ›
×
You can save this tab as Personal to edit and correct it or add notes. All changes will be seen only by you. Learn more »
launch autoscroll
font size
0
reset
how to read this tab
guitar tuner
edit
Autoscroll
slow
fast
+/-
esc
set tempo
stop
Master of Disaster (Seether)
Drop D

[Intro]

e|-------------------------------------------------------------------|
B|-------------------------------------------------------------------|
G|-------------------------------------------------------------------|
D|- 5-5-5-5 -- 7-7-7-7 - 8-8-8-8 - 10-8-7----------------------------| x2
A|-------------------------------------------------------------------|
D|-------------------------------------------------------------------|


e|-------------------------------------------------------------------|
B|-------------------------------------------------------------------|
G|-------------------------------------------------------------------|
D|- 3-3-3-3 -- 5-5-5-5 - 7-7-7-7 - 5-5-3 ----------------------------| x2
A|-------------------------------------------------------------------|
D|-------------------------------------------------------------------|

Steal my sight and then
Fill my mind with foreign words
To keep me wanting.

And speak now child
And chill my heart
With all the hurt and keep me
Suffering

e|-------------------------------------------------------------------|
B|-------------------------------------------------------------------|
G|-------------------------------------------------------------------|
D|- 5-5-5-5 -- 7-7-7-7 - 8-8-8-8 - 10-8-7----------------------------| x2
A|-------------------------------------------------------------------|
D|-------------------------------------------------------------------|


e|-------------------------------------------------------------------|
B|-------------------------------------------------------------------|
G|-------------------------------------------------------------------|
D|- 3-3-3-3 -- 5-5-5-5 - 7-7-7-7 - 5-5-3 ----------------------------| x2
A|-------------------------------------------------------------------|
D|-------------------------------------------------------------------|

[Pre-Chorus]

All these promises
Lectures and bold face lies

e|-------------------------------------------------------------------|
B|-------------------------------------------------------------------|
G|-------------------------------------------------------------------|
D|- 1-1-1-1 ---- 10-10-10-10 ----------------------------------------|
A|- 1-1-1-1 ---- 10-10-10-10 ----------------------------------------|
D|- 1-1-1-1 ---- 10-10-10-10 ----------------------------------------|


All these promises
Born of a shameless mind.

e|-------------------------------------------------------------------|
B|-------------------------------------------------------------------|
G|-------------------------------------------------------------------|
D|- 1-1-1-1 ---- 10-10-10-10 -- 8-8 ---------------------------------|
A|- 1-1-1-1 ---- 10-10-10-10 -- 8-8 ---------------------------------|
D|- 1-1-1-1 ---- 10-10-10-10 -- 8-8 ---------------------------------|


[Chorus]

Leave me to heal on my own
With those empty cool promises

e|-------------------------------------------------------------------|
B|-------------------------------------------------------------------|
G|-------------------------------------------------------------------|
D|- 5-5-5-5 ---- 8-8-8-8 ---- 3-3-3-3 ---- 1-1-1-1 ------------------|
A|- 5-5-5-5 ---- 8-8-8-8 ---- 3-3-3-3 ---- 1-1-1-1 ------------------|
D|- 5-5-5-5 ---- 8-8-8-8 ---- 3-3-3-3 ---- 0-0-0-0 ------------------|


You stole my dreams
Yeah all my dreams are dead inside

e|-------------------------------------------------------------------|
B|-------------------------------------------------------------------|
G|-------------------------------------------------------------------|
D|- 5-5-5-5 ---- 1-1-1-1 ---- 3-3-3-3 ------------ 10-10 ------------|
A|- 5-5-5-5 ---- 1-1-1-1 ---- 3-3-3-3 ------------ 10-10 ------------|
D|- 5-5-5-5 ---- 0-0-0-0 ---- 3-3-3-3 ------------ 10-10 ------------|


Please let me feel my way home
Without reason or compromise
You stole my dreams
Now all I believe is dead inside

e|-------------------------------------------------------------------|
B|-------------------------------------------------------------------|
G|-------------------------------------------------------------------|
D|- 5-5-5-5 ---- 1-1-1-1 ---- 3-3-3-3 ------------ 10-10 ------------|
A|- 5-5-5-5 ---- 1-1-1-1 ---- 3-3-3-3 ------------ 10-10 ------------|
D|- 5-5-5-5 ---- 0-0-0-0 ---- 3-3-3-3 ------------ 10-10 ------------|


[Bridge]

Don't let me sleep
Take me back
But don't let me be comfortable

e|-------------------------------------------------------------------|
B|-------------------------------------------------------------------|
G|-------------------------------------------------------------------|
D|- 8-8-8-8 ---- 3-3-3-3 ---- 5-5-5-5 -------------------------------|
A|- 8-8-8-8 ---- 3-3-3-3 ---- 5-5-5-5 -------------------------------|
D|- 8-8-8-8 ---- 3-3-3-3 ---- 5-5-5-5 -------------------------------|

If I get too weak
Cut no slack
But don't let me be comfortable

e|-------------------------------------------------------------------|
B|-------------------------------------------------------------------|
G|-------------------------------------------------------------------|
D|- 8-8-8-8 ---- 3-3-3-3 ---- 5-5-5-5 -------------------------------|
A|- 8-8-8-8 ---- 3-3-3-3 ---- 5-5-5-5 -------------------------------|
D|- 8-8-8-8 ---- 3-3-3-3 ---- 5-5-5-5 -------------------------------|

Don't let me sleep
Take me back
But don't let me be comfortable

e|-------------------------------------------------------------------|
B|-------------------------------------------------------------------|
G|-------------------------------------------------------------------|
D|- 8-8-8-8 ---- 3-3-3-3 ---- 5-5-5-5 ------------ 1-1 --------------|
A|- 8-8-8-8 ---- 3-3-3-3 ---- 5-5-5-5 ------------ 1-1 --------------|
D|- 8-8-8-8 ---- 3-3-3-3 ---- 5-5-5-5 ------------ 1-1 --------------|

            
            
Suggest correction
Creating personal tab
Creating personal tab
You can edit any tab online and save it as your Personal.

You can edit, replace or remove any tab part or add personal notes – all changes will be seen only by you.

Personal tabs can be accessed anytime from any device, even offline.
Learn more »
Give kudos to tab author, rate the tab!
1 2 3 4 5
comments
print report bad tab
guest
You may want to rate the tab now too:
select rating
Wanna post a correction for this tab? Suggest correction