Oops, an error
Loading. Please wait.

Melodious tab

by Seether
277 views 3 this week
no commentswrite comment
1 2 3 4 5
3 more votes to show rating
add to favorites
×
Save as Personal and add changes to this tab that will be seen only by you. Learn more ›
×
You can save this tab as Personal to edit and correct it or add notes. All changes will be seen only by you. Learn more »
launch autoscroll
font size
0
reset
how to read this tab
guitar tuner
edit
Autoscroll
slow
fast
+/-
esc
set tempo
stop
Author
-------------------------------------------------------------------------------
                             Melodious - Seether
-------------------------------------------------------------------------------

Tabbed by: Chris Esp
E-mail: greekgamer17@yahoo.gr

Tuning: Drop C#  (C#G#C#F#A#D#)  (Tune your guitar to D# standard then drop the top string to C#)


VERSE (0:00-0:30): 

Guitar 1: x4

D#|-----------------------------------------|
A#|-----------------------------------------|
F#|---------10/12~--------------------------|
C#|--10/12----------10/12\10-\8-8/10~-------|  x4
G#|----------------------------------(10~)--|  
C#|-----------------------------------------|  

Not all slides are played instantly. There is a small delay.
Listen to the song playing along and you will get it.
(The last 10~ is played every second time)


Guitar 2: x4

D#|--------------------------------------|
A#|--------------------------------------|
F#|---------5-----------------5----------|
C#|---3-3-3----3-3-3----5-5-5----5-5-5---|  x4
G#|--5-5-5-5--5-5-5-5--3-3-3-3--3-3-3-3--|
C#|--------------------------------------|

When I fuck up everything you knew
Then I lose so much, I don't miss you
You aimed everything at me
Then I turned so ripe, here with me

When I clean down everything that's wrong
It felt so right, it can't be wrong
Then I lean down everything I choose
And the miles we get, it's all we choose


CHORUS 1 (0:31-1:00): 

Guitar 1: x2

D#|------5--------5-3--|
A#|------5--------5-3--|
F#|--10--7----10--7-5--|
C#|--10--7----10--7-5--|
G#|---8--5-----8--5-3--|
C#|---8--------8-------|

Guitar 2:

D#|--------------------------------------------|
A#|--------------------------------------------|
F#|--------------------------------------------|
C#|--------------------------------------------|
G#|--12--/10-10--/8-8~--8-/10--12---15--15/17--|
C#|--------------------------------------------|

D#|------------------------------------------------|
A#|------------------------------------------------|
F#|------------------------------------------------|
C#|------------------------------------------------|  x2
G#|--12--/10-10--/8-8~--8-/10--12---/17--15-15-15--|
C#|------------------------------------------------|

D#|---------------------------------------|
A#|---------------------------------------|
F#|---------------------------------------|
C#|---------------------------------------|
G#|--12--/10-10--/8-8~--8-/10--12---/17~--|
C#|---------------------------------------|

I know that you don't freakin' like it now
I know that you don't feel right
I know that you won't feel so heavy
I know that you will leave me here. To die... Alone


INSTRUMENTAL 1 (1:03-1:33): (Exactly like VERSE)

Guitar 1: x4

D#|-----------------------------------------|
A#|-----------------------------------------|
F#|---------10/12~--------------------------|
C#|--10/12----------10/12\10-\8-8/10~-------|  x4
G#|----------------------------------(10~)--|  
C#|-----------------------------------------|  

Not all slides are played instantly. There is a small delay.
Listen to the song playing along and you will get it.
(The last 10~ is played every second time)


Guitar 2: x4

D#|--------------------------------------|
A#|--------------------------------------|
F#|---------5-----------------5----------|
C#|---3-3-3----3-3-3----5-5-5----5-5-5---|  x4
G#|--5-5-5-5--5-5-5-5--3-3-3-3--3-3-3-3--|
C#|--------------------------------------|


CHORUS 2 (1:34-2:02):

Guitar 1: x2

D#|------5--------5-3--|
A#|------5--------5-3--|
F#|--10--7----10--7-5--|
C#|--10--7----10--7-5--|
G#|---8--5-----8--5-3--|
C#|---8--------8-------|

Guitar 2:

D#|--------------------------------------------|
A#|--------------------------------------------|
F#|--------------------------------------------|
C#|--------------------------------------------|
G#|--12--/10-10--/8-8~--8-/10--12---15--15/17--|
C#|--------------------------------------------|

D#|------------------------------------------------|
A#|------------------------------------------------|
F#|------------------------------------------------|
C#|------------------------------------------------|  x2
G#|--12--/10-10--/8-8~--8-/10--12---/17--15-15-15--|
C#|------------------------------------------------|

D#|---------------------------------------|
A#|---------------------------------------|
F#|---------------------------------------|
C#|---------------------------------------|
G#|--12--/10-10--/8-8~--8-/10--12---/17~--|
C#|---------------------------------------|

I know that you don't sleep and like it
I know that you don't sleep at night
I know that you don't even trust me
I know that you will leave me here. To die... Alone


INSTRUMENTAL 2 (2:06-2:36): (Exactly like VERSE)

Guitar 1: x4

D#|-----------------------------------------|
A#|-----------------------------------------|
F#|---------10/12~--------------------------|
C#|--10/12----------10/12\10-\8-8/10~-------|  x4
G#|----------------------------------(10~)--|  
C#|-----------------------------------------|  

Not all slides are played instantly. There is a small delay.
Listen to the song playing along and you will get it.
(The last 10~ is played every second time)


Guitar 2: x4

D#|--------------------------------------|
A#|--------------------------------------|
F#|---------5-----------------5----------|
C#|---3-3-3----3-3-3----5-5-5----5-5-5---|  x4
G#|--5-5-5-5--5-5-5-5--3-3-3-3--3-3-3-3--|
C#|--------------------------------------|


CHORUS 3 (2:37-3:05):

Guitar 1: x2

D#|------5--------5-3--|
A#|------5--------5-3--|
F#|--10--7----10--7-5--|
C#|--10--7----10--7-5--|
G#|---8--5-----8--5-3--|
C#|---8--------8-------|

Guitar 2:

D#|--------------------------------------------|
A#|--------------------------------------------|
F#|--------------------------------------------|
C#|--------------------------------------------|
G#|--12--/10-10--/8-8~--8-/10--12---15--15/17--|
C#|--------------------------------------------|

D#|------------------------------------------------|
A#|------------------------------------------------|
F#|------------------------------------------------|
C#|------------------------------------------------|  x2
G#|--12--/10-10--/8-8~--8-/10--12---/17--15-15-15--|
C#|------------------------------------------------|

D#|---------------------------------------|
A#|---------------------------------------|
F#|---------------------------------------|
C#|---------------------------------------|
G#|--12--/10-10--/8-8~--8-/10--12---/17~--|
C#|---------------------------------------|

I know that you don't sleep and like it
I know that you don't sleep at night
I know that you don't need much longer
I know that you will leave me here. 


CHORUS 3 ENDING (3:06-3:17):

Guitar 1:

D#|--5--3--|
A#|--5--3--|
F#|--7--5--|
C#|--7--5--|  x3
G#|--5--3--|
C#|--------|

Guitar 2:

D#|------------------------|
A#|------------------------|
F#|------------------------|
C#|------------------------|  x3
G#|--12---12--17---15-15~--|
C#|------------------------|

To die... Alone


OUTRO (3:20-4:10): (Exactly like VERSE)

Guitar 1: x4

D#|-----------------------------------------|
A#|-----------------------------------------|
F#|---------10/12~--------------------------|
C#|--10/12----------10/12\10-\8-8/10~-------|  x4
G#|----------------------------------(10~)--|  
C#|-----------------------------------------|  

Not all slides are played instantly. There is a small delay.
Listen to the song playing along and you will get it.
(The last 10~ is played every second time)


Guitar 2: x4

D#|--------------------------------------|
A#|--------------------------------------|
F#|---------5-----------------5----------|
C#|---3-3-3----3-3-3----5-5-5----5-5-5---|  x4
G#|--5-5-5-5--5-5-5-5--3-3-3-3--3-3-3-3--|
C#|--------------------------------------|

Then

Guitar 1: x4

D#|------------------------------------------|
A#|------------------------------------------|
F#|---------10/12~---------------------------|
C#|--10/12----------10/12\10-\8-8/10~--------|  x2
G#|-----------------------------------10-10--|  
C#|------------------------------------------| 

D#|----------|
A#|----------|
F#|----------|
C#|--10/12~--|  
G#|----------|  
C#|----------| 


Have Fun! 


************************************

| x   Dead note
| g   Grace note
| (n) Ghost note
| h   Hammer-on
| p   Pull-off
| r   Release
| >   Accented note
| t   Tapping
| b   Bend
| br  Bend release
| pb  Pre-bend
| pbr Pre-bend release
| /   Slide up
| \   Slide down
| ~   Vibrato
| s   Slap
| P   Pop
| PM  Palm mute
| TR  Trill
| N   Tremolo

************************************

            
            
Suggest correction
Creating personal tab
Creating personal tab
You can edit any tab online and save it as your Personal.

You can edit, replace or remove any tab part or add personal notes – all changes will be seen only by you.

Personal tabs can be accessed anytime from any device, even offline.
Learn more »
Give kudos to tab author, rate the tab!
1 2 3 4 5
comments
print report bad tab
guest
You may want to rate the tab now too:
select rating
Wanna post a correction for this tab? Suggest correction