Oops, an error
Loading. Please wait.

Gabi tab

35 views 1 this week
no commentswrite comment
1 2 3 4 5
3 more votes to show rating
add to favorites
×
Save as Personal and add changes to this tab that will be seen only by you. Learn more ›
×
You can save this tab as Personal to edit and correct it or add notes. All changes will be seen only by you. Learn more »
launch autoscroll
font size
0
reset
how to read this tab
guitar tuner
edit
Autoscroll
slow
fast
+/-
esc
set tempo
stop
Gitarra

Intro
e|-------------------------|
b|-------------------------|
g|-------------------------|2 veces
d|------4-----5----7-------|
a|--5---2-----3----5----5--|
E|--3-------------------3--|
    G5   B5 C5   D5  G5

despues de q haces el intro la 1ra vez
tiene un arreglillo mas o menos asi:

e|------------------------------|
b|------------------------------|
g|--4h5-3-5-3-------------------|
d|------------5-0---------------|
a|-----------------5------------|
E|-----------------3------------|

Bajo
G:----------------------------------|
D:-------------4-4-4-4--5-5--7-7----|
A:---5-5-5-5--2-2-2-2--3-3--5-5-----|2 veces
E:--3-3-3-3-------------------------|

G5G5G5G5

G5                     B5
Hola Como estas En los Bares de Ciudad
C5                     D5
Pastelitos en el Once y esas Ganas de Hablar..
G5                     B5
no te preocupes sin saber a qien creer
C5                     D5
no me des explicaciones solo desapareces...

C5          D5        G5  F#5 B5
Gaby no es importante perder
C5                   D5      G5 G5 G5
si no el Perdon de mierda llegara...
C5          D5        G5  F#5 B5
sacate   parte ya   de una vez.
C5            D5        G5
y te ves muy bonita respirar

*Aqui la Guitarra  se Calla y Qeda el puro bajo con la bateria

G5                     B5
No te Preocupes Tu Cuerpo  Es lo Que Fue
C5                     D5
y tu Cabezita Enferma no me importa entender

*Entra guitarra
G5                     B5
si Me rio mas O si busco otra mas
C5                     D5
yo nunca te hable de amores no se por que escapar


C5          D5        G5  F5 B5
Gaby no es importante perder
C5                   D5      G5 G5 G5
si no el Perdon de mierda llegara...
C5          D5        G5  F#5 B5
sacate,   parte  ya   de una vez.
C5            D5        G5
y te ves muy bonita respirar.

Solo.
e|---------------------------------------------------------------------|
b|---------------------------------------------------------------------|
g|-4h5-3-3-5-3-3-----3-4h5-3-3-5-3-3----3-4h5-5-5-5-5-5---4h5-3-3-5-3--|
d|----------------5-------------------5--------------------------------|
a|---------------------------------------------------------------------|
E|---------------------------------------------------------------------|


e|--------------------------------------------------------------------|
b|--------------------------------------------------------------------|
g|----4h5-3-3-5-3-3---3-4h7-7-7-7-7--7-8-7-8-7-8-7-8-7-8-7-8-7h10-10--|
d|------------------5-------------------------------------------------|
a|--------------------------------------------------------------------|
E|--------------------------------------------------------------------|

C5          D5        G5  F#5 B5
Sabes no es importante perder
C5                   D5      G5 G5 G5
si no el Perdon de mierda llegara...
C5          D5        G5  F#5 B5
sacate parte ya de una vez.
C5            D5        G5
y te ves muy bonita respirar.


C5
Yo Estoy Con Dos
G5
Yo Estoy Con Dos
C5
Yo Estoy Con Dos
G5
Yo Estoy Con Dos
C5
Yo Estoy Con Dos
G5
Yo Estoy Con Dos

e|-------------------------------|
b|-------------------------------|
g|--4h5-3-5-3--------------------|
d|------------5-3--------5-------|
a|-----------------5-3---3-------|
E|-------------------------------|


Eso Es Todo...
asi La Saque i pss si esta mal ni pedo...
Alguna duda, mentada de madre,etc a:
duck_unk@

Saludos a los tropicos

            
            
Suggest correction
Creating personal tab
Creating personal tab
You can edit any tab online and save it as your Personal.

You can edit, replace or remove any tab part or add personal notes – all changes will be seen only by you.

Personal tabs can be accessed anytime from any device, even offline.
Learn more »
Give kudos to tab author, rate the tab!
1 2 3 4 5
comments
print report bad tab
guest
Wanna post a correction for this tab? Suggest correction