Oops, an error
Loading. Please wait.

Heer Wijs Mij Uw Weg bass

by Sela
190 views 9 this week
no commentswrite comment
1 2 3 4 5
3 more votes to show rating
add to favorites
×
Save as Personal and add changes to this tab that will be seen only by you. Learn more ›
×
You can save this tab as Personal to edit and correct it or add notes. All changes will be seen only by you. Learn more »
launch autoscroll
font size
0
reset
guitar tuner
edit
Autoscroll
slow
fast
+/-
esc
set tempo
stop
Author
Difficulty
-------------------------------------------------------------------------------
                             SONG NAME - Band Name
-------------------------------------------------------------------------------
Tabbed by: Timon
E-mail: 

Tuning: Standard


Vers 1:=======================================================================
G|----------------------------------0----------------------------------------|
D|0----------1-------4-----------------------4------1---------------0--------|
A|---------------------------------------------------------------------------|
E|---------------------------------------------------------------------------|
  Heer, wijs mij uw weg         en leid mij als een kind        dat heel de

G|-------2--------------------4--------------------------------------2-------|
D|-4-------------------------------------1---------------------4-------4-----|
A|---------------------------------------------------------------------------|
E|---------------------------------------------------------------------------|
   levensweg       slechts in U richting vindt.     Als mij de moed ontbreekt

G|---------2--------------------------2---4----------------------------------|
D|----1--------4------------------0--------------------1------1--0-----0-----|
A|---------------------------------------------------------------------------|
E|---------------------------------------------------------------------------|
   om door te gaan,        troost mij dan liefdevol en moedig mij weer aan.



Vers 2:=======================================================================
G|----------------------------------0----------------------------------------|
D|0----------1-------4-----------------------4------1---------------0--------|
A|---------------------------------------------------------------------------|
E|---------------------------------------------------------------------------|
  Heer, leer mij uw weg         die zuiver   is en  goed        Uw woord is

G|-------2------------------4-----------------------------------------2------|
D|-4---------------------------------------1--------------------4---------4--|
A|---------------------------------------------------------------------------|
E|---------------------------------------------------------------------------|
   onder-weg        Als een lamp voor mijn voet     Als mij het zicht ontbreekt

G|---------2--------------------------2---4----------------------------------|
D|-----1-------4------------------0---------------------1-------1---0---0----|
A|---------------------------------------------------------------------------|
E|---------------------------------------------------------------------------|
   het don-ker is,           leid mij dan op uw weg, de weg die eeu-wig is.



Vers 3:=======================================================================
G|----------------------------------0----------------------------------------|
D|0----------1-------4-----------------------4-------1---------------0-------|
A|---------------------------------------------------------------------------|
E|---------------------------------------------------------------------------|
  Heer, leer mij uw wil         aan-vaarden  als een kind        dat blinde- 

G|----------2---------------4-----------------------------------------2------|
D|-4---------------------------------------1--------------------4---------4--|
A|---------------------------------------------------------------------------|
E|---------------------------------------------------------------------------|
   lings en stil      U ver-trouwt,  vrede vindt     Als mij de wil ontbreekt

G|--------2-------------------------2--4-------------------------------------|
D|----1-------4----------------0---------------------------1-------1--0---0--|
A|---------------------------------------------------------------------------|
E|---------------------------------------------------------------------------|
  uw weg  te  gaan      spreek door uw Woord en Geest mijn hart en le-ven aan
 


Vers 4:=======================================================================
G|----------------------------------0----------------------------------------|
D|0----------1-------4-----------------------4-------1--------------0--------|
A|---------------------------------------------------------------------------|
E|---------------------------------------------------------------------------|
  Heer toon mij uw plan;       maak door uw Geest bekend        hoe ik u

G|----------------------------4----------------------------------2-----------|
D|-4-------------------------------------1--------------------4-------4------|
A|---------------------------------------------------------------------------|
E|---------------------------------------------------------------------------|
   dienen kan          en waarheen u mij zendt     Als ik de weg niet weet

G|---------2-------------------------------2---4----2------------------------|
D|----1--------4----------------------0---------------------4----1-----1-----|
A|---------------------------------------------------------------------------|
E|---------------------------------------------------------------------------|
   de hoop op geef,              toon mij dat Christus heel mijn weg gelopen 
 

G|---------------------2---4----2--------------------------------------------|
D|---4---4-4--1----0---------------------4----1-----1------4-----------------|
A|---------------------------------------------------------------------------|
E|---------------------------------------------------------------------------|
     heeft    toon mij dat Christus heel mijn weg gelopen heeft


===============================================================================

            
            
Suggest correction
Creating personal tab
Creating personal tab
You can edit any tab online and save it as your Personal.

You can edit, replace or remove any tab part or add personal notes – all changes will be seen only by you.

Personal tabs can be accessed anytime from any device, even offline.
Learn more »
Give kudos to tab author, rate the tab!
1 2 3 4 5
comments
print report bad tab
guest
You may want to rate the tab now too:
select rating
Wanna post a correction for this tab? Suggest correction