Oops, an error
Loading. Please wait.

On My Radio bass

7,388 views 21 this week
3 commentsread comments
1 2 3 4 5
x 4
add to favorites
×
Save as Personal and add changes to this tab that will be seen only by you. Learn more ›
×
You can save this tab as Personal to edit and correct it or add notes. All changes will be seen only by you. Learn more »
launch autoscroll
font size
0
reset
guitar tuner
edit
Autoscroll
slow
fast
+/-
esc
set tempo
stop
Song: On My Radio
Artist: The Selecter
Tabbed by: Iisaw Kookostawis (joannie@sprocket.viathe.net)


i'd recomend listening to a recording for the extact timing.

verses
  1a.                            1b.
G:------------------------------|----------------------------5--
D:------------------------------|------------------------5------
A:--5--5--5-5-5-3-------------3-|--5--5--5-5-5-3-----------3----
E:----------------3--3--3-3-3---|----------------3--3--3--------

most of the time all of riff 1 (a&b) are played. Occasionally 1a 
will be repeated in lieu of 1b. 


chorus  

G:------------------------------------------------------------
D:------------------------------------------------------------
A:------------------------------------------------------------
E:--7---7---7---2---8---8-----------(snooze)---------------------
   ..just the same old show   .... on my radio

            
            
Suggest correction
Creating personal tab
Creating personal tab
You can edit any tab online and save it as your Personal.

You can edit, replace or remove any tab part or add personal notes – all changes will be seen only by you.

Personal tabs can be accessed anytime from any device, even offline.
Learn more »
comments
print report bad tab
3 comments total.
-2 reply
bigsuit 80 Dec 04, 2007 11:23 AM

Two lines of tab? what is that

0 reply
neale5j 10 Dec 13, 2015 01:45 PM

Clearly wrong. Nowhere near accurate. The bass line is more syncopated to fit into the Ska genre. This is far too simplified and incomplete.

0 reply
MotoMartin 10 Apr 05, 2016 10:25 PM

I think it sounds closer to the recording if you play:

A: --5--5--5-5-5-0---------------0-|
E: -----------------3--3--3-3-3----|

guest
Wanna post a correction for this tab? Suggest correction