Oops, an error
Loading. Please wait.

Round And Round tab

version 2
version 2

Whole song

Interactive

3,591 views 1 this week
no commentswrite comment
1 2 3 4 5
1 last vote to show rating
add to favorites
×
Save as Personal and add changes to this tab that will be seen only by you. Learn more ›
×
You can save this tab as Personal to edit and correct it or add notes. All changes will be seen only by you. Learn more »
launch autoscroll
font size
0
reset
how to read this tab
guitar tuner
edit
Autoscroll
slow
fast
+/-
esc
set tempo
stop
LISTEN TO AND WATCH LIVE CONCERTS FOR THE TIMING AND VARIATION OF THE NOTES
Effects - Distortion
youtube.com/AliveInTheAfterworld
100% Correct!

Intro/Pre Chorus/Outro: (Repeat As Necessary, On The Last Go, Leave Out The 8th 
Fret On The Lower E And Let The 6th Fret Ring For A Little Before Getting To The Verse)
E|----------------|
B|----------------|
G|----------------|
D|----------------|
A|-5~--7-8-7------|
E|-----------6-8--|

Verse:
E|----------------|
B|----------------|
G|----------------|
D|-7-7-7----------|
A|-5-5-5--8-8/10--|
E|--------6-6/-8--|

Chorus: x3
E|--------------------|----On 4th Time---|                      
B|--------------------|------------------|                     
G|--------------------|------------------|                     
D|-7-7-7--------------|------------------|(Going Round & Round & Round)
A|-5-5-5-7-8-7-----5~-|-7--3~-3~-3~-3~---|
E|-------------6-8----|------------------|

Interlude:
E|---------------------------------|
B|---------------------------------|
G|---------------------------------|
D|--7-7-7----------7-7-7-----------|
A|--5-5-5--8-8/10--5-5-5--8-8-8-8--|
E|---------6-6/-8---------6-6-6-6--|

Breakdown:           |-----Harmony-----|
E|-------------------|-----------------|------------------------|
B|-------------------|-----------------|------------------------|
G|-------------------|-----------------|------------------------|
D|-------------------|---5/7-5---------|------------------------|
A|-5~--7-8-7-----5~--|-7-------5-7-8~--|-7-8-7-----5~--7-8-7----|
E|-----------6-8-----|-----------------|-------6-8-----------6--|
NOTE - Ethan Does The Small "Harmony Riff" ONLY!!! During LIVE Concerts!!!
On The Album He Just Does The Regular Pre Chorus.

            
            
Suggest correction
Creating personal tab
Creating personal tab
You can edit any tab online and save it as your Personal.

You can edit, replace or remove any tab part or add personal notes – all changes will be seen only by you.

Personal tabs can be accessed anytime from any device, even offline.
Learn more »
Give kudos to tab author, rate the tab!
1 2 3 4 5
comments
print report bad tab
guest
You may want to rate the tab now too:
select rating
Wanna post a correction for this tab? Suggest correction