Oops, an error
Loading. Please wait.

Strange About Your Hands tab

57 views 1 this week
1 commentread comment
1 2 3 4 5
3 more votes to show rating
add to favorites
×
Save as Personal and add changes to this tab that will be seen only by you. Learn more ›
×
You can save this tab as Personal to edit and correct it or add notes. All changes will be seen only by you. Learn more »
launch autoscroll
font size
0
reset
how to read this tab
guitar tuner
edit
Autoscroll
slow
fast
+/-
esc
set tempo
stop
Author
Difficulty
ARTIST: Sensations' Fix
SONG: "Strange About Your Hands"
ALBUM: Finest Finger (1976)



TUNING: Standard



INTRO/INTERLUDE:
E|------------------------------------------------------------------------|
B|------------------------------------------------------------------------|
G|-------------0-----------------------------------0----------------------|
D|-------5-----------5-----------5-----------3-----------3-----------3----|
A|-3-----------------------3-----------4-----------------------4----------|
E|------------------------------------------------------------------------|
+
E|------------------------------------------------------------------------|
B|------------------------------------------------------------------------|
G|-------------0-----------------------------------0----------------------|
D|-------5-----------5-----------5-----------3-----------3-----------0----|
A|-3-----------------------3-----------6-----------------------6----------|
E|------------------------------------------------------------------------|
+
E|------------------------------------------------------------------------|
B|------------------------------------------------------------------------|
G|-------------0-----------------------------------0----------------------|
D|-------5-----------5-----------5-----------3-----------3-----------3----|
A|-3-----------------------3-----------4-----------------------4----------|
E|------------------------------------------------------------------------|
+
E|------------------------------------------------------------------------|
B|------------------------------------------------------------------------|
G|-------------0-----------------------------------0----------------------|
D|-------5-----------5-----------5-----------3-----------3-----------3----|
A|-3-----------------------3-----------6-----------------------6----------|
E|------------------------------------------------------------------------|



VERSE:
E|------------------------------------------------------------------------|
B|------------------------------------------------------------------------|
G|-------------0-----------------------------------0----------------------|
D|-------5-----------5-----------5-----------3-----------3-----------3----|
A|-3-----------------------3-----------4-----------------------4----------|
E|------------------------------------------------------------------------|
+
E|------------------------------------------------------------------------|
B|------------------------------------------------------------------------|
G|-------------0-----------------------------------0----------------------|
D|-------5-----------5-----------5-----------3-----------3-----------3----|
A|-3-----------------------3-----------6-----------------------6----------|
E|------------------------------------------------------------------------|
+
E|------------------------------------------------------------------------|
B|------------------------------------------------------------------------|
G|-------------0-----------------------------------0----------------------|
D|-------5-----------5-----------5-----------3-----------3-----------3----|
A|-3-----------------------3-----------4-----------------------4----------|
E|------------------------------------------------------------------------|
+
E|------------------------------------------------------------------------|
B|------------------------------------------------------------------------|
G|-------------0-----------------------------------0----------------------|
D|-------5-----------5-----------5-----------3-----------3-----------0----|
A|-3-----------------------3-----------6-----------------------6----------|
E|------------------------------------------------------------------------|
+
E|------------------------------------------------------------------------|
B|------------------------------------------------------------------------|
G|-------------0-----------------------------------0----------------------|
D|-------5-----------5-----------5-----------3-----------3-----------3----|
A|-3-----------------------3-----------4-----------------------4----------|
E|------------------------------------------------------------------------|
+
E|------------------------------------------------------------------------|
B|------------------------------------------------------------------------|
G|-------------0-----------------------------------0----------------------|
D|-------5-----------5-----------5-----------3-----------3-----------3----|
A|-3-----------------------3-----------6-----------------------6----------|
E|------------------------------------------------------------------------|
+
E|------------------------------------------------------------------------|
B|------------------------------------------------------------------------|
G|-------------0-----------------------------------0----------------------|
D|-------5-----------5-----------5-----------3-----------3-----------3----|
A|-3-----------------------3-----------4-----------------------4----------|
E|------------------------------------------------------------------------|
+
E|------------------------------------------------------------------------|
B|------------------------------------------------------------------------|
G|-------------0-----------------------------------0----------------------|
D|-------5-----------5-----------5-----------3-----------3-----------0----|
A|-3-----------------------3-----------6-----------------------6----------|
E|------------------------------------------------------------------------|



CHORUS:
E|------------------------------------------------------------------------|
B|------------------------------------------------------------------------|
G|------------------------------------------------------------------------|
D|-5-----------#-----5-----------#-----6-----#-----6-----5-----------#----|
A|-3-----------#-----3-----------#-----4-----#-----4-----3-----------#----|
E|------------------------------------------------------------------------|
+
E|------------------------------------------------------------------------|
B|------------------------------------------------------------------------|
G|------------------------------------------------------------------------|
D|-5-----------#-----6-----#-----6-----5-----------#-----5-----------#----|
A|-3-----------#-----4-----#-----4-----3-----------#-----3-----------#----|
E|------------------------------------------------------------------------|
+
E|------------------------------------------------------------------------|
B|------------------------------------------------------------------------|
G|------------------------------------------------------------------------|
D|-6-----#-----6-----5-----------#-----5-----------#-----6-----#-----6----|
A|-4-----#-----4-----3-----------#-----3-----------#-----4-----#-----4----|
E|------------------------------------------------------------------------|
+
E|------------------------------------------------------------------------|
B|------------------------------------------------------------------------|
G|------------------------------------------------------------------------|
D|-5-----------#-----5-----------#-----6-----#-----6-----5-----------#----|
A|-3-----------#-----3-----------#-----4-----#-----4-----3-----------#----|
E|------------------------------------------------------------------------|
+
E|------------------------------------------------------------------------|
B|------------------------------------------------------------------------|
G|------------------------------------------------------------------------|
D|-5-----------#-----6-----#-----6-----5-----------#-----5-----------#----|
A|-3-----------#-----4-----#-----4-----3-----------#-----3-----------#----|
E|------------------------------------------------------------------------|
+
E|------------------------------------------------------------------------|
B|------------------------------------------------------------------------|
G|------------------------------------------------------------------------|
D|-6-----#-----6-----5-----------#-----5-----------#-----6-----#-----6----|
A|-4-----#-----4-----3-----------#-----3-----------#-----4-----#-----4----|
E|------------------------------------------------------------------------|



SOLO:
E|------------------------------------------------------------------------|
B|-8-h9-p8~---------------------------------------------------------------|
G|------------------------------------------------------------------------|
D|------------------------------------------------------------------------|
A|------------------------------------------------------------------------|
E|------------------------------------------------------------------------|
+
E|------------------------------------------------------------------------|
B|-------------------8-h9-p8----------------------------------------------|
G|-------------------------------10~---------8~---------------------------|
D|-------------------------------------------------------------10----8----|
A|------------------------------------------------------------------------|
E|------------------------------------------------------------------------|
+
E|------------------------------------------------------------------------|
B|------------------------------------------------------------------------|
G|------------------------------------------------------------------------|
D|-10~--------------------------------------------------------------------|
A|------------------------------------------------------------------------|
E|------------------------------------------------------------------------|
+
E|------------------------------------------------------------------------|
B|-------------------------------8~---------------------------------------|
G|-------------------------8-h10-------------------------10~---------8~---|
D|-------------------8-h10------------------------------------------------|
A|------------------------------------------------------------------------|
E|------------------------------------------------------------------------|
+
E|------------------------------------------------------------------------|
B|------------------------------------------------------------------------|
G|------------------------------------------------------------------------|
D|-------10~--------------------------------------------------------------|
A|------------------------------------------------------------------------|
E|------------------------------------------------------------------------|
+
E|------------------------------------------------------------------------|
B|-------------------8~----------9~----------11~--------------/13---------|
G|-------------8-h10------------------------------------------------------|
D|-------8-h10------------------------------------------------------------|
A|------------------------------------------------------------------------|
E|------------------------------------------------------------------------|
+
E|------------------------------------------------------------------------|
B|-13~--------------------------------/16~--------------------------------|
G|------------------------------------------------------------------------|
D|------------------------------------------------------------------------|
A|------------------------------------------------------------------------|
E|------------------------------------------------------------------------|
+
E|------------------------------------------------------------------------|
B|/18~---------------------16h18-16h18-------16h18-16h18-------16h18------|
G|------------------------------------------------------------------------|
D|------------------------------------------------------------------------|
A|------------------------------------------------------------------------|
E|------------------------------------------------------------------------|
+
E|------------------------------------------------------------------------|
B|-16~---------------------13~---------11~---------------------9~---------|
G|------------------------------------------------------------------------|
D|------------------------------------------------------------------------|
A|------------------------------------------------------------------------|
E|------------------------------------------------------------------------|
+
E|------------------------------------------------------------------------|
B|-8~----------------8-h9-p8----------------------------------------------|
G|-------------------------------------10~---------8~---------------------|
D|-------------------------------------------------------------10----8----|
A|------------------------------------------------------------------------|
E|------------------------------------------------------------------------|
+
E|------------------------------------------------------------------------|
B|------------------------------------------------------------------------|
G|-------------------------------------------------------8-----------8----|
D|-10~--------------------------------------------------------------------|
A|------------------------------------------------------------------------|
E|------------------------------------------------------------------------|
+
E|------------------------------------------------------------------------|
B|-------------------------------8----h9----p8-----------11----------11---|
G|-------------------10---------------------------------------------------|
D|------------------------------------------------------------------------|
A|------------------------------------------------------------------------|
E|------------------------------------------------------------------------|
+
E|------------------------------------------------------------------------|
B|/13----------------------------------------------------------------16---|
G|------------------------------------------------------------------------|
D|------------------------------------------------------------------------|
A|------------------------------------------------------------------------|
E|------------------------------------------------------------------------|
+
E|------------------------------------------------------------------------|
B|/18----------------------------------------16----------13----------11~--|
G|------------------------------------------------------------------------|
D|------------------------------------------------------------------------|
A|------------------------------------------------------------------------|
E|------------------------------------------------------------------------|
+
E|------------------------------------------------------------------------|
B|----------------------------------------------------------11----------11|
G|-------------8~---------------------------------------------------------|
D|------------------------------------------------------------------------|
A|------------------------------------------------------------------------|
E|------------------------------------------------------------------------|
+
E|------------------------------------------------------------------------|
B|------------------------------------------------------------------------|
G|----------------------------------10---\8-------------------------------|
D|----------------------------------------------10----8-------------------|
A|------------------------------------------------------------------------|
E|------------------------------------------------------------------------|
+
E|------------------------------------------------------------------------|
B|-16B---------16R--------------------------------------------------------|
G|-------------------------------15B---------13---------------------------|
D|-------------------13---------------------------------------------------|
A|------------------------------------------------------------------------|
E|------------------------------------------------------------------------|
+
E|------------------------------------------------------------------------|
B|-16B---------16R--------------------------------------------------------|
G|-------------------------------15B------15R-----------------------------|
D|-------------------13---------------------------------------------------|
A|------------------------------------------------------------------------|
E|------------------------------------------------------------------------|
+
E|------------------------------------------------------------------------|
B|------------------------------------------------------------------------|
G|-15B---15R---------15B---15R---------15B---15R---------15B---15R--------|
D|-------------13----------------13----------------13----------------13---|
A|------------------------------------------------------------------------|
E|------------------------------------------------------------------------|
+
E|------------------------------------------------------------------------|
B|------------------------------------------------------------------------|
G|-15B---------15R--------------------------------------------------------|
D|----------------------------------13~-----------------------------------|
A|------------------------------------------------------------------------|
E|------------------------------------------------------------------------|
+
E|-------------------------------------------------16---------------------|
B|-16B---------16R---------------------16B--------------------------------|
G|------------------------------------------------------------------------|
D|------------------------------------------------------------------------|
A|------------------------------------------------------------------------|
E|------------------------------------------------------------------------|
+
E|-------16---------------------------------------------------------------|
B|-16B---------------16R--------------------------------------------------|
G|----------------------------------------15B---15R-----------------------|
D|-------------------------------13---------------------------------------|
A|------------------------------------------------------------------------|
E|------------------------------------------------------------------------|
+
E|------------------------------------------------------------------------|
B|-16B---------16R---16B---------------16R--------------------------------|
G|------------------------------------------------------------------------|
D|------------------------------------------------------------------------|
A|------------------------------------------------------------------------|
E|------------------------------------------------------------------------|
+
E|------------------------------------------------------------------------|
B|-18B---------18R---18B---------18B---------18B---------18R--------------|
G|------------------------------------------------------------------------|
D|------------------------------------------------------------------------|
A|------------------------------------------------------------------------|
E|------------------------------------------------------------------------|



FINALE:
E|------------------------------------------------------------------------|
B|------------------------------------------------------------------------|
G|------------------------------------------------------------------------|
D|-5-----#-----------5----------------------------------------------------|
A|-3-----#-----------3----------------------------------------------------|
E|------------------------------------------------------------------------|



SONG STRUCTURE:

INTRO
VERSE
CHORUS
INTERLUDE
VERSE
CHORUS
SOLO (Guitar 2: VERSE x 2)
CHORUS
FINALE



That's it.  Please leave any comments, questions, or requests.  Cheers!
-Bennyshambles78-



            
            
Suggest correction
Creating personal tab
Creating personal tab
You can edit any tab online and save it as your Personal.

You can edit, replace or remove any tab part or add personal notes – all changes will be seen only by you.

Personal tabs can be accessed anytime from any device, even offline.
Learn more »
Give kudos to tab author, rate the tab!
1 2 3 4 5
comments
print report bad tab
1 comment total.
0 reply
craiggtr1 10 Oct 07, 2017 04:51 PM

Came across this by accident while looking for the lyrics. What a great lick! And the fuzz part during the chorus is deceptive because of the bass guitar's influence. Great song.

guest
You may want to rate the tab now too:
select rating
Wanna post a correction for this tab? Suggest correction