Oops, an error
Loading. Please wait.

Bastard Son bass

version 1
version 1

Whole song

Interactive

429 views 1 this week
no commentswrite comment
1 2 3 4 5
3 more votes to show rating
add to favorites
×
Save as Personal and add changes to this tab that will be seen only by you. Learn more ›
×
You can save this tab as Personal to edit and correct it or add notes. All changes will be seen only by you. Learn more »
launch autoscroll
font size
0
reset
guitar tuner
edit
Autoscroll
slow
fast
+/-
esc
set tempo
stop
Author
++++++++++++++++++++++++++++
| Senses Fail- Bastard Son |
++++++++++++++++++++++++++++


"The revenge of a five year old boy..."

Tuning: Drop D (DADG)


Intro
1.
G|--------------------------------------------------|
D|--------------------------------------------------|
A|--------------222~--------------------------------|
D|-0-00~--------------------555~--------555~--------|

2.
G|-------------------------------------------------------------------------|
D|-------------------------------------------------------------------------|
A|-------------------22222222-22222222-------------------------------------|--x2
D|-00000000-00000000-------------------55555555-55555555-55555555-55555555-|

Verse
"Daddy where did you go?"
3.
G|-----------------------------------|
D|-----------------------------------|
A|-----------------------------------|
D|-0~--------------------------------|

"My newborn sister left crying..."
4.
G|----------------------------------------------|
D|----------------------------------------------|
A|----------------2~----------------------------|
D|-12\0-0~------------------5~--------5~--------|

"Now with this shiny blade..."
5.
G|-----------------------------------------------------|
D|-----------------------------------------------------|
A|---------------22~--222-222--------------------------|
D|-00~--000--000--------------55~--555-555-55~-5/7777x-|

Chorus
"I have become the bastard son..."
6.
G|-------------------------------------------------------------------------|
D|-------------------------------------------------------------------------|
A|-------------------------------------22222222-22222222-22222222-22222222-|
D|-00000000-00000000-00000000-00000000-------------------------------------|

"The bitch of everyone..."
7.
G|-------------------------------------------------------------------------|
D|-------------------------------------------------------------------------|
A|-00000000-00000000-00000000-00000000-------------------------------------|
D|-------------------------------------55555555-55555555-55555555-55555555-|

Verse
"No one thinks its a lot to go to hell..."
8.
G|---------------------------------------------------------------------|
D|---------------------------------------------------------------------|
A|------------------22-22-22-22-222------------------------------------|
D|-00-00-00-00-000-------------------55-55-55-55-555--55-55-55-55-5555-|

"Turn your back on all your kids..."
9.
G|---------------------------------------------------------------------|
D|---------------------------------------------------------------------|
A|------------------22-22-22-22-222------------------------------------|
D|-00-00-00-00-000-------------------55-55-55-55-555--55-55-55-5/7777x-|

Chorus
"I have become the bastard son..."
10.
G|-------------------------------------------------------------------------|
D|-------------------------------------------------------------------------|
A|-------------------------------------22222222-22222222-22222222-22222222-|
D|-00000000-00000000-00000000-00000000-------------------------------------|

"The bitch of everyone..."
11.
G|-------------------------------------------------------------------------|
D|-------------------------------------------------------------------------|
A|-00000000-00000000-00000000-00000000-------------------------------------|
D|-------------------------------------55555555-55555555-55555555-55555555-|

"I have become the bastard son..."
12.
G|-------------------------------------------------------------------------|
D|-------------------------------------------------------------------------|
A|-------------------------------------22222222-22222222-22222222-22222222-|
D|-00000000-00000000-00000000-00000000-------------------------------------|

"The bitch of everyone..."
13.
G|-------------------------------------------------------------------------|
D|-------------------------------------------------------------------------|
A|-00000000-00000000-00000000-00000000-------------------------------------|
D|-------------------------------------55555555-55555555-55555555-55555555-|

Outro
14.
G|-------------------------------------|
D|-------------------------------------|
A|-------------------------------------|
D|-0~----------------0~----------------|

Bridge
"You've failed all of your kids..."
15.
G|-------------------------------------------------------------------------|
D|-------------------------------------------------------------------------|
A|-------------------------------------------------------------------------|--x2
D|-00000000-00000000-00000000-00000000-55555555-55555555-55555555-55555555-|

"And the souls you smoke..."
16.
G|-----------------------------------------------------------------------|
D|-----------------------------------------------------------------------|
A|-----------------------------------------------------------------------|
D|-22222222-22222222-22222222-22222222-55555555-55555555-55555555-55555x-|

Chorus
"Lies, they're coming back to life..."
17.
G|-------------------------------------------------------------------------|
D|-------------------------------------------------------------------------|
A|-------------------------------------------------------------------------|--x2
D|-00000000-00000000-00000000-00000000-55555555-55555555-55555555-55555555-|

"The revenge of a five year old boy..."
18.
G|-----------------------------------------------------------------------|
D|-----------------------------------------------------------------------|
A|-----------------------------------------------------------------------|
D|-22222222-22222222-22222222-22222222-55555555-55555555-55555555-55555x-|

"Lies, they're coming back to life..."
18.
G|-------------------------------------------------------------------------|
D|-------------------------------------------------------------------------|
A|-------------------------------------------------------------------------|--x2
D|-00000000-00000000-00000000-00000000-55555555-55555555-55555555-55555555-|

"The revenge of a five year old boy..."
19.
G|-------------------------------------------------------------------------|
D|-------------------------------------------------------------------------|
A|-------------------------------------------------------------------------|
D|-22222222-22222222-22222222-22222222-55555555-55555555-55555555-55555555-|

Outro
20.
G|-----------------------------------|
D|-----------------------------------|
A|-----------------------------------|
D|-0~--------------------------------|


Lyrics:


Daddy where did you go,
When I was five years old?
My newborn sister left crying in her crib.
Now with this shiny blade
I'm slicing not to make
my heart and relationship to you

I have become the bastard son
The bitch of everyone
The failure I've become

No one thinks it's a lot to go to hell
You're all right so better leave it well
These words are running through my mind
Turn your back on all your kids
Just look at what you did
Just another bastard son like me

You've failed all of your kids
An eternity of blind hate
Flows from your diamond rings
And the souls you smoke
Mock your face in hell

Lies
They're coming back to life
Coming back to lies
They're coming back to me
The revenge of a five year old boy



+++++++++++++++++++++++++++++++++
| RaiLeff                       |
| Underground__Dora@Hotmail.Com |
+++++++++++++++++++++++++++++++++

            
            
Suggest correction
Creating personal tab
Creating personal tab
You can edit any tab online and save it as your Personal.

You can edit, replace or remove any tab part or add personal notes – all changes will be seen only by you.

Personal tabs can be accessed anytime from any device, even offline.
Learn more »
Give kudos to tab author, rate the tab!
1 2 3 4 5
comments
print report bad tab
guest
You may want to rate the tab now too:
select rating
Wanna post a correction for this tab? Suggest correction