Oops, an error
Loading. Please wait.

Calling All Cars bass

version 1
version 1

Whole song

7,621 views 3 this week
6 commentsread comments
1 2 3 4 5
x 14
add to favorites
×
Save as Personal and add changes to this tab that will be seen only by you. Learn more ›
×
You can save this tab as Personal to edit and correct it or add notes. All changes will be seen only by you. Learn more »
launch autoscroll
font size
0
reset
guitar tuner
edit
Autoscroll
slow
fast
+/-
esc
set tempo
stop
#----------------------------------PLEASE NOTE---------------------------------#
#This file is the author's own work and represents their interpretation of the #
#song. You may only use this file for private study, scholarship, or research. #
#------------------------------------------------------------------------------##

                           CALLING ALL CARS (Bassline)
                           As recorded by Senses Fail
                      (From the 2006 Album STILL SEARCHING)

Words and Music by Garrett Zablocki, Heath Saraceno, Buddy Nielson, Mike Glita, Dan Trapp
Arranged by Senses Fail
Transcribed by Derek Line

The idiot who rated this one star is stupid.
Play it with the song.
This came with Guitar World.
This may not be 100% correct, but its closer to the real thing
than you could ever come up with.


Gtr I (D A D G) - 'Bass'

 Intro
  Moderately Fast Q=168
 4/4
  Gtr I
  Wx8
|--------||
|--------||
|--------||
|--------||


  E E E E E E E E   E E E E E E E E   E E E E E E E E   E E E E E E E E
|-----------------|-----------------|-----------------|------------------|
|-----------------|-----------------|-----------------|-4-4-4-4-2-2-2-2--|
|-2-2-2-2-2-2-2-2-|-2-2-2-2-2-2-2-2-|-4-4-4-4-4-4-4-4-|------------------|
|-----------------|-----------------|-----------------|------------------|


  E E E E E E E E   E E E E E E E E   E E E E E E E E   E E E E E E E E
|-----------------|-----------------|-----------------|------------------||
|-----------------|-----------------|-----------------|------------------||
|-----------------|-----------------|-----------------|------------------||
|-0-0-0-0-0-0-0-0-|-0-0-0-0-0-0-0-0-|-5-5-5-5-5-5-5-5-|-5-5-5-5-5-5-5-5--||


 Verses
  $
  E E q  Q  E E   q  Q  H      E E q  Q  E E   q  Q  H
|---------------|------------|---------------|------------|
|---------------|------------|---------------|------------|
|---------------|------------|---------------|------------|
|---9-9--9----7-|-7--7-------|---0-0--0----5-|-5--5-------|


  E E q  Q  E E   q  Q  +E  E E E   +E  E q  Q  E E   q  Q  Q  E E
|---------------|-----------------|-----------------|---------------|
|---------------|-----------------|-----------------|---------------|
|---------------|-----------9-7s9-|-(9)-------------|---------------|
|---9-9--9----7-|-7--7--(7)-------|-----0-0--0----5-|-5--5--5--5-5--|


  E E E E E E E E    E  E  E  E  E  E  E  E
|-----------------|-------------------------|
|-----------------|-------------------------|
|-----------------|-------------------------|
|-9-9-9-9-9-9-9-9-|-11-11-11-11-11-11-11-11-|


   E  E  E  E  E  E  E  E   E E E E E E E E
|-------------------------|-------------------|
|-------------------------|-------------------|
|-------------------------|-------------------|
|-12-12-12-12-12-12-12-12S|=5-5-5-5-5-5-5-5S==|


  E E E E E E E E   E E E E E E E E   E E E E E E E E   E E E E E E E E
|-----------------|-----------------|-----------------|------------------||
|-----------------|-----------------|-----------------|------------------||
|-----------------|-----------------|-----------------|------------------||
|-9-9-9-9-9-9-9-9-|-7-7-7-7-7-7-7-7-|-0-0-0-2-2-2-4-4-|-5-5-5-4-4-4-2-2--||


 Chorus
  $$
  Q.   E Q.   E   +E  E Q  Q.   E   Q.   E Q.   E   +Q   Q  E Q  E
|---------------|-----------------|---------------|-----------------|
|---------------|-----------------|---------------|-----------------|
|---------------|-----------------|---------------|-----------------|
|-0----0-0----0-|-(0)-0-0--0----0-|-4----4-4----4-|-(4)--4--4-5--5--|


  Q.   E Q.   E   +E  E Q  E E Q    Q.   E E E E E   E E E E E Q.
|---------------|-----------------|----------------|-----------------|
|---------------|-----------------|----------------|-----------------|
|---------------|-----------------|----------------|-----------------|
|-9----9-9----9-|-(9)-9-9--9-9-9S=|=5----5-5-5-5-5-|-0-0-4-0-4-5-----|


                                                       To Coda
  Q.   E Q.   E   +E  E Q  Q.   E   Q.   E Q.   E   E E E E E Q.
|---------------|-----------------|---------------|-----------------|
|---------------|-----------------|---------------|-----------------|
|---------------|-----------------|---------------|-----------------|
|-0----0-0----0-|-(0)-0-0--0----0-|-7----7-7----7-|-7-7-7-7-7-4-----|


                                                       D.S. al Coda
                                                       D.S. al Coda
  Q.   E Q.   E   +E  E Q  E E E E   Q.   E +E  E Q    +E  E E E E Q.
|---------------|------------------|-----------------|-------------------||
|---------------|------------------|-----------------|-------------------||
|---------------|------------------|-----------------|-------------------||
|-9----9-9----9-|-(9)-9-9--9-9-0-0-|-5----5-(5)-5-5--|-(5)-0-4-0-4-5-----||


 2nd Chorus Cont.
  &
  Q.   E Q.   E   +E  E Q  E E E E   Q.   E +E  E Q    +E  E E E E Q.
|---------------|------------------|-----------------|-------------------||
|---------------|------------------|-----------------|-------------------||
|---------------|------------------|-----------------|-------------------||
|-9----9-9----9-|-(9)-9-9--9-9-0-0-|-5----5-(5)-5-5--|-(5)-0-4-0-5-7-----||


 Bridge
  E E E E q  Q    W          E E E E Q  Q    +H      E  Q.
|---------------|----------|---------------|------------------|
|---------------|----------|---------------|------------------|
|---------------|----------|---------------|------------------|
|-9-9-9-9-9-----|----------|-7-7-7-7-7--7--|-(7)----12-12\----|


  E E E E E Q.     E E E E E Q.     E E E E E Q.     E E E E E Q.
|----------------|----------------|----------------|-----------------|
|----------------|----------------|----------------|-----------------|
|----------------|----------------|----------------|-----------------|
|-0-0-4-0-4-5----|-0-0-4-0-4-5----|-0-0-4-0-4-5----|-0-0-4-0-4-5-----|


  E E E E Q  Q    +Q   H    Q    E E E E Q  Q    +Q   Q  E E E E
|---------------|--------------|---------------|------------------|
|---------------|--------------|---------------|------------------|
|---------------|--------------|---------------|------------------|
|-9-9-9-9-9--9--|-(9)--9----9--|-7-7-7-7-7--7--|-(7)--7--7-7-7-7--|


  E E E E E Q.     E E E E E Q.     E E E E E Q.     E E E E E Q.
|----------------|----------------|----------------|-----------------|
|----------------|----------------|----------------|-----------------|
|----------------|----------------|----------------|-----------------|
|-0-0-4-0-4-5----|-0-0-4-0-4-5----|-0-0-4-0-4-5----|-0-0-4-0-4-5-----|


  Q  Q  Q  Q    Q  Q  Q  Q     Q   Q   E  E  E  E    E  E  E  E  E  E  Q
|-------------|-------------|---------------------|------------------------|
|-------------|-------------|---------------------|------------------------|
|-------------|-------------|---------------------|------------------------|
|-9--9--9--9--|-9--9--9--9--|-11--11--11-11-11-11-|-11-11-11-11-11-11-11---|


                                                     D.S.S. al Dbl. Coda
                                                              |-3-| |-3-|
  E E E  E  E  E  E E   E E  E  E E E E E   E E E E E E E E   Q Q Q Q Q Q
|---------------------|-------------------|-----------------|-------------||
|---------------------|-------------------|-----------------|-------------||
|---------------------|-------------------|-----------------|-------------||
|-0-0-0-12-12-12-12-0-|-0-0-12-12-0-0-0-0-|-5-5-5-5-5-5-5-5-|-5-5-5-4-4-4-||


   Outro
    &&
    E E E E E E E E   E E E E E E E E   E E E E E E E E   E E E E E E E E
||------------------|-----------------|-----------------|-----------------|
||o-----------------|-----------------|-----------------|-----------------|
||o-----------------|-----------------|-----------------|-----------------|
||--0-0-0-0-0-0-0-0-|-0-0-0-0-0-0-0-0-|-7-7-7-7-7-7-7-7-|-7-7-7-7-8-8-8-8-|


  E E E E E E E E   E E E E E E E E   E E E E E E E E   E E E E E E E E
|-----------------|-----------------|-----------------|-------------------||
|-----------------|-----------------|-----------------|------------------o||
|-----------------|-----------------|-----------------|------------------o||
|-9-9-9-9-9-9-9-9-|-9-9-9-9-9-9-9-9-|-5-5-5-5-5-5-5-5-|-5-5-5-5-5-5-5-5---||


   E  E  E  E  E  E  E  E   E E E E E Q.     W          +W
|-------------------------|----------------|----------|--------*|
|-------------------------|----------------|----------|--------*|
|-10-10-10-10-10-10-10-10-|----------------|----------|--------*|
|-------------------------|-0-0-4-0-4-5----|-0--------|-(0)----*|


Duration Legend
---------------
W - whole; H - half; Q - quarter; E - 8th; S - 16th; T - 32nd; X - 64th; a - acciaccatura
+ - note tied to previous; . - note dotted; .. - note double dotted
Uncapitalized letters represent notes that are staccato (1/2 duration)
Irregular groupings are notated above the duration line
Duration letters will always appear directly above the note/fret number it represents the
duration for.  Duration letters with no fret number below them represent rests.  Multi-
bar rests are notated in the form Wxn, where n is the number of bars to rest for.  Low
melody durations appear below the staff

Tablature Legend
----------------
 h   - hammer-on
 p   - pull-off
 b   - bend
 pb  - pre-bend
 r   - bend release (if no number after the r, then release immediately)
 /\  - slide into or out of (from/to "nowhere")
 s   - legato slide
 S   - shift slide
  - natural harmonic
[n]  - artificial harmonic
n(n) - tapped harmonic
 ~   - vibrato
 tr  - trill
 T   - tap
 TP  - trem. picking
 PM  - palm muting
\n/  - tremolo bar dip; n = amount to dip
 \n  - tremolo bar down
 n/  - tremolo bar up
/n\  - tremolo bar inverted dip
 =   - hold bend; also acts as connecting device for hammers/pulls
 <>  - volume swell (louder/softer)
 x   - on rhythm slash represents muted slash
 o   - on rhythm slash represents single note slash

Misc Legend
-----------
 |  - bar
||  - double bar
||o - repeat start
o|| - repeat end
*|  - double bar (ending)
 :  - bar (freetime)
 $  - Segno
 &  - Coda
Tempo markers -  = BPM(8/16=s8/s16), where s8 = swing 8ths, s16 = swing 16ths


***************************************************************************************
* Generated using Power Tab Editor by Brad Larsen - http://powertab.guitarnetwork.org *
***************************************************************************************

            
            
Suggest correction
Creating personal tab
Creating personal tab
You can edit any tab online and save it as your Personal.

You can edit, replace or remove any tab part or add personal notes – all changes will be seen only by you.

Personal tabs can be accessed anytime from any device, even offline.
Learn more »
comments
print report bad tab
6 comments total. Showing first comments.
-2 reply
mcrksk1294 10 May 09, 2007 01:11 PM

not acuratte its just wrong give up

0 reply
sersup 10 Nov 17, 2007 07:52 AM

i disagree. i think this tabs pretty good. :)

0 reply
FidoFletch 52 Jan 09, 2008 04:15 AM

i disagree too.. this tab is pretty good man.. These kind of tabs are the most accurate. The negative part of it is that
it's only hard to understand the tab as it has many legend and stuffs like that. Other than that, it's........ COOL!!

guest
You may want to rate the tab now too:
select rating
Wanna post a correction for this tab? Suggest correction