Oops, an error
Loading. Please wait.

Cant Be Saved intro tab

version 1
version 1

Intro

Whole song

Interactive

25,589 views 1 this week
3 commentsread comments
1 2 3 4 5
x 6
add to favorites
×
Save as Personal and add changes to this tab that will be seen only by you. Learn more ›
×
You can save this tab as Personal to edit and correct it or add notes. All changes will be seen only by you. Learn more »
launch autoscroll
font size
0
reset
how to read this tab
guitar tuner
backing track
0:00
0:00
edit
Autoscroll
slow
fast
+/-
esc
set tempo
stop
Difficulty
Can't be Saved By Senses Fail

Intro

e|--------------------------------|
B|--------------------------------|
G|--------------------------------|
D|--2-----------------------------|
A|--2-----------------------------|
E|--0-----------------------------|


e|--------------------------------|
B|--------------------------------|
G|--------------------------------|
D|--------------------------------|
A|--5-6-8-10-8-6-5-6--------------|X3
E|--------------------------------|


e|--------------------------------|
B|--------------------------------|
G|--------------------------------|
D|--------------------------------|
A|--5-6-8-10-8-6-5-5h6p5h6/8------|
E|--------------------------------|


e|--------------------------------|
B|--------------------------------|
G|---------5*---------------------|
D|---2*----5---5*----- -----------|
A|---2-----3---5------------------|
E|---0---------3------------ -----|

*8x


            
            
Suggest correction
Creating personal tab
Creating personal tab
You can edit any tab online and save it as your Personal.

You can edit, replace or remove any tab part or add personal notes – all changes will be seen only by you.

Personal tabs can be accessed anytime from any device, even offline.
Learn more »
comments
print report bad tab
3 comments total.
0 reply
tbs_7424 57 Jan 23, 2007 10:27 AM

im sorry
but the rhythym guitar through the whole song except the bridge is a b power chord on the 5th string, a g power chord starting on the sixth string (drop d), and a d power chord, also 6th string drop d

0 reply
ThrillerIOH 274 Feb 15, 2008 04:35 AM

this is in drop d

0 reply
irishfan3124 10 Mar 27, 2008 03:45 PM

the beginning guitar part is much higher. it should be played like this on the high E string:
|--14--15--17--18-17-15--|

guest
Wanna post a correction for this tab? Suggest correction