Oops, an error
Loading. Please wait.

Cant Be Saved tab

version 2
version 2

Whole song

Interactive

16,099 views 1 this week
10 commentsread comments
1 2 3 4 5
x 7
add to favorites
×
Save as Personal and add changes to this tab that will be seen only by you. Learn more ›
×
You can save this tab as Personal to edit and correct it or add notes. All changes will be seen only by you. Learn more »
launch autoscroll
font size
0
reset
how to read this tab
guitar tuner
backing track
0:00
0:00
edit
Autoscroll
slow
fast
+/-
esc
set tempo
stop
----------------------------------------------------------------------------
                             Can't Be Saved - Senses Fail
----------------------------------------------------------------------------


Intro:
 
Guitar 1 
|-----------------------------|
|-----------------------------|
|-----------------------------|
|-0---Let ring----------------|
|-0---------------------------|
|-0---------------------------|


Guitar 2
|-----------------------------|
|-------------(7)~------------|
|-----------------------------|
|-----------------------------|
|-----------------------------|
|-----------------------------|


Guitar 1
|--------------------------------|
|--------------------------------|
|-------------------------2222222|
|-9999xx9--5555xx5--0000xx0000000| x2
|-9999xx9--5555xx5--0000xx0000000|
|-9999xx9--5555xx5--0000xx0000000|



Guitar 2 - Harmonics.     After 3rd time:
|--------------------|   |-------------------------------|
|-(7)------(5)-------|   |-(7)---(7)--(7)-(7)------(7)---|
|----(5)---------(5)-|   |----(5)---(5)-(5)-(5)-(5)--(5)-| 
|-------(3)---(3)----|x3 |-------------------------------|
|--------------------|   |-------------------------------|
|--------------------|   |-------------------------------|


Verse:

Guitar 1
|------------------------------|------------------------------|
|------------------------------|------------------------------|
|------------------------------|------------------------------|
|--------5555555---------------|--------5555555---------------|
|---------------55555555555555-|---------------55555555555555-|
|-9999999----------------------|-9999999----------------------|
PM............................   ............................

Guitar 2
|------------------------------|------------------------------------|
|--------8888888---------------|--------8888888---------------------|
|---------------77777777777777-|---------------7777777-6/7/6/7-7/8~-|
|-9999999----------------------|-9999999----------------------------|
|------------------------------|------------------------------------|
|------------------------------|------------------------------------|
PM............................   .....................

Guitars 1 & 2:
|----------------------------------------|
|----------------------------------------|
|----------------------------------------|
|-9-999999--55-5-55-5--0000000-00-0-00-0-|
|-9-999999--55-5-55-5--0000000-00-0-00-0-|
|-9-999999--55-5-55-5--0000000-00-0-00-0-|
PM  ......  ..   ..    ....... ..   ..

|----------------------------------------|
|----------------------------------------|
|----------------------------------------|
|-9-999999--55-5-55-5--0-000000000000000-|
|-9-999999--55-5-55-5--0-000000000000000-|
|-9-999999--55-5-55-5--0-000000000000000-|
PM  ......  ..   ..      ...............  


Chorus:

Guitar 1
|----------------------------------------|
|----------------------------------------|
|----------------------------------------|
|-9-999999--55-5-55-5--0000000-00-0-00-0-| x4
|-9-999999--55-5-55-5--0000000-00-0-00-0-|
|-9-999999--55-5-55-5--0000000-00-0-00-0-|
    ......  ..   ..    ....... ..   ..


Guitar 2 - Harmonics.    After 3rd time:
|--------------------|   |-------------------------------|
|-(7)------(5)-------|   |-(7)---(7)--(7)-(7)------(7)---|
|----(5)---------(5)-|   |----(5)---(5)-(5)-(5)-(5)--(5)-| x2
|-------(3)---(3)----|x3 |-------------------------------|
|--------------------|   |-------------------------------|
|--------------------|   |-------------------------------|


Verse:

Guitar 1
|------------------------------|------------------------------|
|------------------------------|------------------------------|
|------------------------------|------------------------------|
|--------5555555---------------|--------5555555---------------|
|---------------55555555555555-|---------------55555555555555-|
|-9999999----------------------|-9999999----------------------|
PM............................   ............................



Guitar 2
|------------------------------|------------------------------------|
|--------8888888---------------|--------8888888---------------------|
|---------------77777777777777-|---------------7777777-6/7/6/7-7/8~-|
|-9999999----------------------|-9999999----------------------------|
|------------------------------|------------------------------------|
|------------------------------|------------------------------------|
PM............................   .....................


Guitars 1 & 2:
|----------------------------------------|
|----------------------------------------|
|----------------------------------------|
|-9-999999--55-5-55-5--0000000-00-0-00-0-|
|-9-999999--55-5-55-5--0000000-00-0-00-0-|
|-9-999999--55-5-55-5--0000000-00-0-00-0-|
    ......  ..   ..    ....... ..   ..

|----------------------------------------|
|----------------------------------------|
|----------------------------------------|
|-9-999999--55-5-55-5--0-000000000000000-|
|-9-999999--55-5-55-5--0-000000000000000-|
|-9-999999--55-5-55-5--0-000000000000000-|
    ......  ..   ..      ...............  

Chorus:

Guitar 1
|----------------------------------------|
|----------------------------------------|
|----------------------------------------|
|-9-999999--55-5-55-5--0000000-00-0-00-0-| x4
|-9-999999--55-5-55-5--0000000-00-0-00-0-|
|-9-999999--55-5-55-5--0000000-00-0-00-0-|
    ......  ..   ..    ....... ..   ..


Guitar 2 - Harmonics.    After 3rd time:
|--------------------|   |-------------------------------|
|-(7)------(5)-------|   |-(7)---(7)--(7)-(7)------(7)---|
|----(5)---------(5)-|   |----(5)---(5)-(5)-(5)-(5)--(5)-| x2
|-------(3)---(3)----|x3 |-------------------------------|
|--------------------|   |-------------------------------|
|--------------------|   |-------------------------------|


Breakdown:

Guitars 1 & 2:
|-------------------------------------------|
|-------------------------------------------|
|-66666-66666-------------------------------|
|-xxxxx-xxxxx-x0--4-0-4-0-xxxx-4-0-4-0-xxxx-| x3
|-44444-44444-x0--4-0-4-0-xxxx-4-0-4-0-xxxx-|
|-------------x0--4-0-4-0-xxxx-4-0-4-0-xxxx-|

|-----------------|
|-----------------|
|-66666-66666-----|
|-xxxxx-xxxxx-x0/-|
|-44444-44444-x0/-|
|-------------x0/-|


Interlude:

Guitar 1
|------|
|------|
|------|
|------|
|------|
|-0-45-|


Guitar 2:
|-------------------------------------------------------|
|-------------------------------------------------------|
|-------------------------------------------------------|
|-0-79-----------------------0-79-0-911-0-1112-0-1214~--|
|-------------------------------------------------------|
|-------------------------------------------------------|

Bridge:
|-----------------|
|-----------------|
|-----------------|
|-99999---00xxx000|
|-99999---00xxx000|
|-99999---00xxx000|


Chorus:

Guitar 1
|----------------------------------------|
|----------------------------------------|
|----------------------------------------|
|-9-999999--55-5-55-5--0000000-00-0-00-0-| x4
|-9-999999--55-5-55-5--0000000-00-0-00-0-|
|-9-999999--55-5-55-5--0000000-00-0-00-0-|
PM  ......  ..   ..    ....... ..   ..


Guitar 2 - Harmonics.    After 3rd time:
|--------------------|   |-------------------------------|
|-(7)------(5)-------|   |-(7)---(7)--(7)-(7)------(7)---|
|----(5)---------(5)-|   |----(5)---(5)-(5)-(5)-(5)--(5)-| x2
|-------(3)---(3)----|x3 |-------------------------------|
|--------------------|   |-------------------------------|
|--------------------|   |-------------------------------|

Outro:
Guitars 1 & 2
|--------------------------------------------|
|--------------------------------------------|
|--------------------------------------------|
|-99999999-55555555--------------------------| x4
|-99999999-55555555--------------------------|
|-99999999-55555555-0-45-0-45-0-45-0-45-0-45-|

|---------------------------|
|---------------------------|
|-------------------------6-|
|-4-0-4-0-xxxx-4-0-4-0-xx-x-| x2
|-4-0-4-0-xxxx-4-0-4-0-xx-4-|
|-4-0-4-0-xxxx-4-0-4-0-xx---|



| /  slide up
| \  slide down
| h  hammer-on
| p  pull-off
| ~  vibrato
| +  harmonic
| x  Mute note
============================================================================

            
            
Suggest correction
Creating personal tab
Creating personal tab
You can edit any tab online and save it as your Personal.

You can edit, replace or remove any tab part or add personal notes – all changes will be seen only by you.

Personal tabs can be accessed anytime from any device, even offline.
Learn more »
comments
print report bad tab
10 comments total. Showing first comments.
0 reply
ThrillerIOH 274 Jan 18, 2008 11:18 AM

i think pretty good exept in the chorus i dont think there is palm muting like you put.

0 reply
misery 4 me 10 Jan 22, 2008 11:50 AM

pretty good 5*S

0 reply
ben_nt64 16 Mar 16, 2008 02:24 PM

sorry, but there isnt just thing as a harmonic on the third fret

guest
You may want to rate the tab now too:
select rating
Wanna post a correction for this tab? Suggest correction