Oops, an error
Loading. Please wait.

Cant Be Saved tab

version 4
version 4

Whole song

Interactive

30,677 views 21 this week
10 commentsread comments
1 2 3 4 5
x 16
add to favorites
×
Save as Personal and add changes to this tab that will be seen only by you. Learn more ›
×
You can save this tab as Personal to edit and correct it or add notes. All changes will be seen only by you. Learn more »
launch autoscroll
font size
0
reset
how to read this tab
guitar tuner
backing track
0:00
0:00
edit
Autoscroll
slow
fast
+/-
esc
set tempo
stop
-------------------------------------------------------------------------------
                             Can't Be Saved - Senses Fail
-------------------------------------------------------------------------------
                               *UPDATED AS OF 7/30/09*

Tabbed by:Phatstud55
Email:phatstud55@gmail.com

Special Thanks to 
--chemicalsenses for the Update/correction-end of verse 2
--lmoollie for the update/correction-ending
--jas0nv00r33s for Correction on verse 3
 
updated. Should be more correct. If there are still problems email me.

Tuning:Drop D-Low to High DADGBe

Yes, I do know there are a lot of versions up but
I figured out some more parts that are missing in the other tabs.  Enjoy!
Lead is on top Rhythm is on bottom.
*note* there are lines whenever a new section of the song starts i.e verse, chorus, outro etc.

Notes:  In the last part of the second and third chorus there's a part that 
starts playing in the middle of the chorus.  Due to the fact that I can't
space them correctly if I inserted them where they are played it wouldn't
format correctly so you can't see what to play.  So to remedy that I labeled
where you start playing it with a ^. Yes that little character ^.  Play it
Where that is and you won't have any problems.  Have Fun. 
____________________________________________
Intro
Lead tremolo Strum
e|------------------------------------|
B|------------------------------------|
G|--7N.H-----------7-7----------------|
D|------------------------------------|
A|------------------------------------|
D|------------------------------------|
 |
 |
e|-----------------2-2----------------|
B|--3--------------3-3----------------|
G|--2--------------4-4----------------|
D|--0--------------0-0-----12\--------|
A|--0----------------------12\--------|
D|--0----------------------12\--------|

Lead-All Natural Harmonics
e|-------------------------------------------------------------|
B|--7----------------5-------------7--------------5------------|
G|----------5------------------5----------5----------------5---|
D|----------------3------3---------------------3------3--------|
A|-------------------------------------------------------------|
D|-------------------------------------------------------------|
 |let ring|--|
 |
e|-------------------------------------------------------------|
B|----------------------8--8-8-x-8--3-3-3-3-3-3-3------3-3-3-3-|
G|--1111111212121214----7--7-7-x-9--2-2-2-2-2-2-2------2-2-2-2-|
D|--9-9-9-9-9-9-9-9--x--7--7-7-x-7--0-0-0-0-0-0-0-x-x--0-0-0-0-|
A|--9-9-9-9-9-9-9-9--x--5--5-5-x-5--0-0-0-0-0-0-0-x-x--0-0-0-0-|
D|--9-9-9-9-9-9-9-9--x--5--5-5-x-5--0-0-0-0-0-0-0-x-x--0-0-0-0-|
  
Lead-All Natural Harmonics
e|-------------------------------------------------------------|
B|--7----------------5-------------7---------7----7----7~------|
G|----------5------------------5----------5-----5---5----------|
D|----------------3------3-------------------------------------|
A|-------------------------------------------------------------|
D|-------------------------------------------------------------|
 |let ring|--|
 |
e|-------------------------------------------------------------|
B|----------------------8--8-8-x-8--3-3-3-3-3-3-3------3-3-3-3-|
G|--1111111212121214----7--7-7-x-9--2-2-2-2-2-2-2------2-2-2-2-|
D|--9-9-9-9-9-9-9-9--x--7--7-7-x-7--0-0-0-0-0-0-0-x-x--0-0-0-0-|
A|--9-9-9-9-9-9-9-9--x--5--5-5-x-5--0-0-0-0-0-0-0-x-x--0-0-0-0-|
D|--9-9-9-9-9-9-9-9--x--5--5-5-x-5--0-0-0-0-0-0-0-x-x--0-0-0-0-|
  
______________________________________________________________________
Verse 1
e|---------------------------------------------------------|
B|---------------------------------------------------------|
G|---------------------------------------------------------|
D|------------------9-9-9-9-9-9-9-9-7-7-7-7-7-7-7-7-7-7-7-7|
A|--9-9-9-9-9-9-9-9----------------------------------------|
D|---------------------------------------------------------|
 |PM*******************************************************
e|---------------------------------------------------------|
B|---------------------------------------------------------|
G|---------------------------------------------------------|
D|------------------5-5-5-5-5-5-5-5------------------------|
A|--2-2-2-2-2-2-2-2-----------------5-5-5-5-5-5-5-5-5-5-5-5|
D|---------------------------------------------------------|
 PM********************************************************

e|--------------------------------------------------------------------|
B|--------------------------------------------------------------------|
G|----------------------------------------------------------6h7p6h7--9|
D|------------------9-9-9-9-9-9-9-9-7-7-7-7-7-7-7-7-7-7-7-7-----------|
A|--9-9-9-9-9-9-9-9---------------------------------------------------|
D|--------------------------------------------------------------------|
 |PM*******************************************************
e|--------------------------------------------------------------------|
B|------------------------------------------------------------------8-|
G|------------------------------------------------------------------7-|
D|------------------5-5-5-5-5-5-5-5---------------------------7-7-7-7-|
A|--2-2-2-2-2-2-2-2-----------------5-5-5-5-5-5-5-5-5-5-5-5-5-5-5-5-5-|
D|------------------------------------------------------------------5-|
 PM****************************************************************

Lead Clean
e|--------2------------------2-------------2-----------|
B|------3----3-----3-------3---3---3------3--3---3-----|
G|---2----------2-------2--------2------2------2-------|
D|0------------------0---------------0-----------------|
A|-----------------------------------------------------|
D|-----------------------------------------------------|
 |
 |
e|-----------------------------------------------------|
B|-------------------8--8-8-8--8-8-8--3--3-3-3--3--3-3-|
G|--11-111111111111--7--7-7-7--7-7-7--2--2-2-2--2--2-2-|
D|--9--9-9-9-9-9-9---7--7-7-7--7-7-7--0--0-0-0--0--0-0-|
A|--9--9-9-9-9-9-9---5--5-5-5--5-5-5--0--0-0-0--0--0-0-|
D|--9--9-9-9-9-9-9---5--5-5-5--5-5-5--0--0-0-0--0--0-0-|
 P.M   ***********      ***    ***       ****      * *
Lead Clean
e|--------2------------------2-------------2-----------|
B|------3----3-----3-------3---3---3------3--3---3-----|
G|---2----------2-------2--------2------2------2-------|
D|0------------------0---------------0-----------------|
A|-----------------------------------------------------|
D|-----------------------------------------------------|
 |
 |
e|-----------------------------------------------------|
B|-------------------8--8-8-8--8-8-8--3--3-3-3--3-3-3--|
G|--11-111111111111--7--7-7-7--7-7-7--2--2-2-2--2-2-2--|
D|--9--9-9-9-9-9-9---7--7-7-7--7-7-7--0--0-0-0--0-0-0--|
A|--9--9-9-9-9-9-9---5--5-5-5--5-5-5--0--0-0-0--0-0-0--|
D|--9--9-9-9-9-9-9---5--5-5-5--5-5-5--0--0-0-0--0-0-0--|
 P.M   ***********      ***    ***       ****       
____________________________________________________________________

Chorus repeat this entire line twice then go to the verse
Lead-All Natural Harmonics
e|-------------------------------------------------------------|
B|--7----------------5-------------7--------------5------------|
G|----------5------------------5----------5----------------5---|
D|----------------3------3---------------------3------3--------|
A|-------------------------------------------------------------|
D|-------------------------------------------------------------|
 |let ring|--|
 |
e|-------------------------------------------------------------|
B|----------------------8--8-8-x----3-3-3-3-3-3-3------3-3-3-3-|
G|--1111111212121214----7--7-7-x-9--2-2-2-2-2-2-2------2-2-2-2-|
D|--9-9-9-9-9-9-9-9--x--7--7-7-x-7--0-0-0-0-0-0-0-x-x--0-0-0-0-|
A|--9-9-9-9-9-9-9-9--x--5--5-5-x-5--0-0-0-0-0-0-0-x-x--0-0-0-0-|
D|--9-9-9-9-9-9-9-9--x--5--5-5-x-5--0-0-0-0-0-0-0-x-x--0-0-0-0-|
  
Lead-All Natural Harmonics
e|-------------------------------------------------------------|
B|--7----------------5-------------7---------7----7----7~------|
G|----------5------------------5----------5-----5---5----------|
D|----------------3------3-------------------------------------|
A|-------------------------------------------------------------|
D|-------------------------------------------------------------|
 |let ring|--|
 |
e|-------------------------------------------------------------|
B|----------------------8--8-8-x-8--3-3-3-3-3-3-3------3-3-3-3-|
G|--1111111212121214----7--7-7-x-9--2-2-2-2-2-2-2------2-2-2-2-|
D|--9-9-9-9-9-9-9-9--x--7--7-7-x-7--0-0-0-0-0-0-0-x-x--0-0-0-0-|
A|--9-9-9-9-9-9-9-9--x--5--5-5-x-5--0-0-0-0-0-0-0-x-x--0-0-0-0-|
D|--9-9-9-9-9-9-9-9--x--5--5-5-x-5--0-0-0-0-0-0-0-x-x--0-0-0-0-|
_______________________________________________________________________________
Verse 2

e|---------------------------------------------------------|
B|---------------------------------------------------------|
G|---------------------------------------------------------|
D|------------------9-9-9-9-9-9-9-9-7-7-7-7-7-7-7-7-7-7-7-7|
A|--9-9-9-9-9-9-9-9----------------------------------------|
D|---------------------------------------------------------|
 |PM*******************************************************
 |
e|---------------------------------------------------------|
B|---------------------------------------------------------|
G|---------------------------------------------------------|
D|------------------5-5-5-5-5-5-5-5------------------------|
A|--2-2-2-2-2-2-2-2-----------------5-5-5-5-5-5-5-5-5-5-5-5|
D|---------------------------------------------------------|
 PM********************************************************
                                                                     N.H
e|----------------------------------------------------------------------|
B|-------------------------------------------------------------------(7)|
G|----------------------------------------------------------6h7p6h7-----|
D|------------------9-9-9-9-9-9-9-9-7-7-7-0-7-7-7-7-7-7-7-7-------------|
A|--9-9-9-9-9-9-9-9-----------------------------------------------------|
D|----------------------------------------------------------------------|
 |PM*******************************************************
 |
e|----------------------------------------------------------------------|
B|------------------------------------------------------------------8---|
G|------------------------------------------------------------------7---|
D|------------------5-5-5-5-5-5-5-5---------------------------7-7-7-7---|
A|--2-2-2-2-2-2-2-2-----------------5-5-5-5-5-5-5-5-5-5-5-5-5-5-5-5-5---|
D|------------------------------------------------------------------5---|
 PM****************************************************************

Lead Clean
e|--------2------------------2-------------2-----------|
B|------3----3-----3-------3---3---3------3--3---3-----|
G|---2----------2-------2--------2------2------2-------|
D|0------------------0---------------0-----------------|
A|-----------------------------------------------------|
D|-----------------------------------------------------|
 |
 |
e|-----------------------------------------------------|
B|-------------------8--8-8-8--8-8-8--3--3-3-3--3--3-3-|
G|--11-111111111111--7--7-7-7--7-7-7--2--2-2-2--2--2-2-|
D|--9--9-9-9-9-9-9---7--7-7-7--7-7-7--0--0-0-0--0--0-0-|
A|--9--9-9-9-9-9-9---5--5-5-5--5-5-5--0--0-0-0--0--0-0-|
D|--9--9-9-9-9-9-9---5--5-5-5--5-5-5--0--0-0-0--0--0-0-|
 P.M   ***********      ***    ***       ****      * *

Lead Clean
e|--------2------------------2-------------2-----------|
B|------3----3-----3-------3---3---3------3--3---3-----|
G|---2----------2-------2--------2------2------2-------|
D|0------------------0---------------0-----------------|
A|-----------------------------------------------------|
D|-----------------------------------------------------|
 |
 |
e|------------------------------------------------------2-2-2-2-2-| 
B|--------------------------------------7---------------3-3-3-3-3-|
G|4-------4/6-------6/7-----------------5---------------2-2-2-2-2-|
D|4-------4/6-------6/7-----------------0--0-0-0-0-0-0--0-0-0-0-0-|
A|2--0-0--2/4--0-0--4/5--0-0--4-5-------0--0-0-0-0-0-0--0-0-0-0-0-|
D|----------------------------4-5--0-0--0--0-0-0-0-0-0--0-0-0-0-0-|
P.M  * *       * *       * *       * *     * * * * * *    
___________________________________________________________
Chorus

Chorus repeat this entire line twice then go to the verse
Lead-All Natural Harmonics
e|-------------------------------------------------------------|
B|--7----------------5-------------7--------------5------------|
G|----------5------------------5----------5----------------5---|
D|----------------3------3---------------------3------3--------|
A|-------------------------------------------------------------|
D|-------------------------------------------------------------|
 |let ring|--|
 |
e|-------------------------------------------------------------|
B|----------------------8--8-8-x-8--3-3-3-3-3-3-3------3-3-3-3-|
G|--1111111212121214----7--7-7-x-9--2-2-2-2-2-2-2------2-2-2-2-|
D|--9-9-9-9-9-9-9-9--x--7--7-7-x-7--0-0-0-0-0-0-0-x-x--0-0-0-0-|
A|--9-9-9-9-9-9-9-9--x--5--5-5-x-5--0-0-0-0-0-0-0-x-x--0-0-0-0-|
D|--9-9-9-9-9-9-9-9--x--5--5-5-x-5--0-0-0-0-0-0-0-x-x--0-0-0-0-|
  
Lead-All Natural Harmonics
e|-------------------------------------------------------------|
B|--7----------------5-------------7---------7----7----7~------|
G|----------5------------------5----------5-----5---5----------|
D|----------------3------3-------------------------------------|
A|-------------------------------------------------------------|
D|-------------------------------------------------------------|
 |let ring|--|
 |
e|-------------------------------------------------------------|
B|----------------------8--8-8-x-8--3-3-3-3-3-3-3------3-3-3-3-|
G|--1111111212121214----7--7-7-x-9--2-2-2-2-2-2-2------2-2-2-2-|
D|--9-9-9-9-9-9-9-9--x--7--7-7-x-7--0-0-0-0-0-0-0-x-x--0-0-0-0-|
A|--9-9-9-9-9-9-9-9--x--5--5-5-x-5--0-0-0-0-0-0-0-x-x--0-0-0-0-|
D|--9-9-9-9-9-9-9-9--x--5--5-5-x-5--0-0-0-0-0-0-0-x-x--0-0-0-0-|
                                      ^
Second Time Only:                     ^
                                      ^
Start playing this right here---------|
see notes for specifics              
e|-----------------------------------------------------|
B|-----------------------------------------------------|
G|--7--7--7--7--9--9--9--9--11-11-11-11-12-12-12-12----|
D|--x--x--x--x--x--x--x--x--x--x--x--x--x--x--x--x-----|
A|--5--5--5--5--7--7--7--7--9--9--9--9--10-10-10-10----|
D|-----------------------------------------------------|
 |
e|-----------------------------------------------------|
B|-----------------------------------------------------|
G|--11-11-11-11-12-12-12-12-14-14-14-14-16-16-16-16----|
D|--x--x--x--x---x--x--x--x--x--x--x--x--x--x--x--x----|
A|--9--9--9--9--10-10-10-10-12-12-12-12-14-14-14-14----|
D|-----------------------------------------------------|


__________________________________________________________________________
Verse 3
e|----------------------------------------------------------------------|
B|----------------------------------------------------------------------|
G|-6-6-6-6-6-6-6---6-6-6-6-6-6-6----------------------------------------|
D|-7-7-7-7-7-7-7-x-7-7-7-7-7-7-7-x-5--4-0--4-0---------4-0--4-0---------|x3
A|-4-4-4-4-4-4-4-x-4-4-4-4-4-4-4-x-5--4-0--4-0---------4-0--4-0---------|
D|---------------x---------------x-5--4-0--4-0--000000-4-0--4-0--000000-|
P.M                                             ******           ******

e|----------------------------------|
B|-------------------------x-x-x-x--|
G|-6-6-6-6-6-6-6---6-6-6-6-x-x-x-x--|
D|-7-7-7-7-7-7-7-x-7-7-7-7-x-x-x-x--|x3
A|-4-4-4-4-4-4-4-x-4-4-4-4-x-x-x-x--|
D|----------------------------------|



e|---------------------------------|
B|---------------------------------|
G|---------------------------------|
D|---------------------------------|
A|---------------------------------|x2
D|-0-4-5-0-4-5-0-4-5-0-4-5-4-2-4-2-|

e|---------------------------------------------------------------------|
B|---------------------------------------------------------------------|
G|---------------------------------------------------------------------|
D|-0-7-9-0-7-9-0-7-9-0-7-9-0-5-7-5-0-7-9-0-7-9-0-9-11-0-9-11-0-12-14-12|
A|---------------------------------------------------------------------|
D|---------------------------------------------------------------------|
 |
e|---------------------------------------------------------------------|
B|---------------------------------------------------------------------|
G|---------------------------------------------------------------------|
D|---------------------------------------------------------------------|
A|---------------------------------------------------------------------|
D|-0-4-5-0-4-5-0-4-5-0-4-5-4-2-4-2-0-4-5-0-4-5-0-4-5--0-4-5--4-2--4--2-|

e|--------------|
B|--------------|
G|-111111111111-|
D|-9-9-9-9-9-9\-|
A|-9-9-9-9-9-9\-|
D|-9-9-9-9-9-9\-|
 |
e|--------------|
B|--------------|
G|-111111111111-|
D|-9-9-9-9-9-9\-|
A|-9-9-9-9-9-9\-|
D|-9-9-9-9-9-9\-|
I'm Stuck in a Coma!

e|---------------2----------|
B|-3-------3-----3----------|
G|-2-------2-----4----------|
D|-0-------0-------x-x-x-x--|
A|-0-x-x-x-0-x-x---x-x-x-x--|
D|-0-x-x-x-0-x-x---x-x-x-x--|
                   ^
Do these Mutes-----| 
at the 9th fret
to get that specific ring
_________________________________________________________________________
Chorus 

Lead-All Natural Harmonics
e|-------------------------------------------------------------|
B|--7----------------5-------------7---------7----7----7~------|
G|----------5------------------5----------5-----5---5----------|
D|----------------3------3-------------------------------------|
A|-------------------------------------------------------------|
D|-------------------------------------------------------------|
 |let ring|--|
 |
e|-------------------------------------------------------------|
B|----------------------8--8-8-x-8--3-3-3-3-3-3-3------3-3-3-3-|
G|--1111111212121214----7--7-7-x-9--2-2-2-2-2-2-2------2-2-2-2-|
D|--9-9-9-9-9-9-9-9--x--7--7-7-x-7--0-0-0-0-0-0-0-x-x--0-0-0-0-|
A|--9-9-9-9-9-9-9-9--x--5--5-5-x-5--0-0-0-0-0-0-0-x-x--0-0-0-0-|
D|--9-9-9-9-9-9-9-9--x--5--5-5-x-5--0-0-0-0-0-0-0-x-x--0-0-0-0-|

e|-------------------------------------------------------------|
B|--7----------------5-------------7--------------5------------|
G|----------5------------------5----------5----------------5---|
D|----------------3------3---------------------3------3--------|
A|-------------------------------------------------------------|
D|-------------------------------------------------------------|
 |let ring|--|
 |
e|-------------------------------------------------------------|
B|----------------------8--8-8-x-8--3-3-3-3-3-3-3------3-3-3-3-|
G|--1111111212121214----7--7-7-x-9--2-2-2-2-2-2-2------2-2-2-2-|
D|--9-9-9-9-9-9-9-9--x--7--7-7-x-7--0-0-0-0-0-0-0-x-x--0-0-0-0-|
A|--9-9-9-9-9-9-9-9--x--5--5-5-x-5--0-0-0-0-0-0-0-x-x--0-0-0-0-|
D|--9-9-9-9-9-9-9-9--x--5--5-5-x-5--0-0-0-0-0-0-0-x-x--0-0-0-0-|
  
Lead-All Natural Harmonics
e|-------------------------------------------------------------|
B|--7----------------5-------------7---------7----7----7~------|
G|----------5------------------5----------5-----5---5----------|
D|----------------3------3-------------------------------------|
A|-------------------------------------------------------------|
D|-------------------------------------------------------------|
 |let ring|--|
 |
e|-------------------------------------------------------------|
B|----------------------8--8-8-x-8--3-3-3-3-3-3-3------3-3-3-3-|
G|--1111111212121214----7--7-7-x-9--2-2-2-2-2-2-2------2-2-2-2-|
D|--9-9-9-9-9-9-9-9--x--7--7-7-x-7--0-0-0-0-0-0-0-x-x--0-0-0-0-|
A|--9-9-9-9-9-9-9-9--x--5--5-5-x-5--0-0-0-0-0-0-0-x-x--0-0-0-0-|
D|--9-9-9-9-9-9-9-9--x--5--5-5-x-5--0-0-0-0-0-0-0-x-x--0-0-0-0-|
                                      ^
Start playing this right here---------|
see notes for specifics              
e|-----------------------------------------------------|
B|-----------------------------------------------------|
G|--7--7--7--7--9--9--9--9--11-11-11-11-12-12-12-12----|
D|--x--x--x--x--x--x--x--x--x--x--x--x--x--x--x--x-----|
A|--5--5--5--5--7--7--7--7--9--9--9--9--10-10-10-10----|
D|-----------------------------------------------------|
 |
e|-----------------------------------------------------|
B|-----------------------------------------------------|
G|--11-11-11-11-12-12-12-12-14-14-14-14-16-16-16-16----|
D|--x--x--x--x---x--x--x--x--x--x--x--x--x--x--x--x----|
A|--9--9--9--9--10-10-10-10-12-12-12-12-14-14-14-14----|
D|-----------------------------------------------------|




___________________________________________________________________________
Outro

e|-------------------------------------------------------------------|
B|------------------8-8-8-8-8-8-8-8----------------------------------|
G|--111111111111111-7-7-7-7-7-7-7-7----------------------------------|
D|--9-9-9-9-9-9-9-9-5-5-5-5-5-5-5-5----------------------------------|x3
A|--9-9-9-9-9-9-9-9-5-5-5-5-5-5-5-5----------------------------------|
D|--9-9-9-9-9-9-9-9-5-5-5-5-5-5-5-5--0-4-5-0-4-5-0-4-5-0-4-5-4-2-4-2-|

e|--------------------------------------|
B|--------------------------------------|
G|--111111111111111-7-7-7-7-------------|
D|--9-9-9-9-9-9-9-9-5-5-5-5-xxxxxxxxxx--|
A|--9-9-9-9-9-9-9-9-5-5-5-5-xxxxxxxxxx--|
D|--9-9-9-9-9-9-9-9-5-5-5-5-xxxxxxxxxx--|
     
e|-----------------------------------------------------------------------|
B|-----------------------------------------------------------------------|
G|------------------------------6-----------------------------------6----|
D|-4-0--4-0-----------4-0--4-0--7--4-0--4-0----------4-0--4-0-------7----|
A|-4-0--4-0-----------4-0--4-0--4--4-0--4-0----------4-0--4-0-------4----|
D|-4-0--4-0--0000000--4-0--4-0-----4-0--4-0-0000000--4-0--4-0-0000-------|
 |        P.M*******                        *******           ****


And That's it.  Hope you're not stuck in a coma after reading this tab.
When two lines of tab are connected together with
"|" that means they are played at the same time much like piano music.
Best of luck and enjoy playing this awesome song.

Email me if you have any questions or comments.


| /  slide up
| \  slide down
| h  hammer-on
| p  pull-off
| ~  vibrato
| +  harmonic
| x  Mute note

            
            
Suggest correction
Creating personal tab
Creating personal tab
You can edit any tab online and save it as your Personal.

You can edit, replace or remove any tab part or add personal notes – all changes will be seen only by you.

Personal tabs can be accessed anytime from any device, even offline.
Learn more »
comments
print report bad tab
10 comments total. Showing first comments.
0 reply
random_iro 10 Jul 10, 2008 06:23 PM

Finnaly!!! someone that actually knows the lead line is harmonics thank you!!!! Sick tab by the way!!!

0 reply
parkerguitars24 82 Jul 11, 2008 04:29 PM

Completely perfect, far as I can tell.

0 reply
lmoollie 31 Aug 11, 2008 08:37 AM

Great TAB but, I think the last bit of the outro may go a bit more like this:

e|-----------------------------------------------------------------------|
B|-----------------------------------------------------------------------|
G|-----------------------------------------------------------------------|
D|-5-4--5-4-----------5-4--5-4--7--5-4--5-4----------5-4--5-4-------7----|
A|-5-4--5-4-----------5-4--5-4--4--5-4--5-4----------5-4--5-4-------4----|
D|-5-4--5-4--0000000--5-4--5-4--4--5-4--5-4-0000000--5-4--5-4-0000--4----|
P.M******* ******* ****


I'm not 100% sure about this, maybe less (or more) muted D notes.

Thanks

guest
You may want to rate the tab now too:
select rating
Wanna post a correction for this tab? Suggest correction