Oops, an error
Loading. Please wait.

Garden State tab

version 2
version 2

Whole song

Interactive

796 views 3 this week
no commentswrite comment
1 2 3 4 5
3 more votes to show rating
add to favorites
×
Save as Personal and add changes to this tab that will be seen only by you. Learn more ›
×
You can save this tab as Personal to edit and correct it or add notes. All changes will be seen only by you. Learn more »
launch autoscroll
font size
0
reset
how to read this tab
guitar tuner
edit
Autoscroll
slow
fast
+/-
esc
set tempo
stop
Author
Difficulty
Senses Fail - Garden State tabs

|-------------------------------------------|
|-------------------------------------------|
|----14-14-----14-14-14-----14--12--11--12--|
|-------------------------------------------|
|----12-12-----12-12-12-----12--10--9---10--|
|-------------------------------------------|

                     these are 14 and 12 \/
|-------------------------------------------------------|
|-------------------------------------------------------|
|----14-14-----14-14-14-----14--16--14---14141414141414-|
|-------------------------------------------------------|
|----12-12-----12-12-12-----12--14--12---12121212121212-|
|-------------------------------------------------------|

|-------------------------------------------|
|-------------------------------------------|
|----14-14-----14-14-14-----14--12--11--12--|
|-------------------------------------------|
|----12-12-----12-12-12-----12--10--9---10--|
|-------------------------------------------|

|--------------------------|
|--------------------------|
|----10\\9------5-5//7//5--|
|--------------------------|
|----12\\11-----7-7//9//7--|
|--------------------------|

|----2-2---2-2--5----------------------------|
|----3-3---3-3--6----------------------------|
|----4-4---4-4--7----------------------------|
|----4-4-4-4-4--7---7-7-7-7-7-7--------------|
|----2-2-2-2-2--5---5-5-5-5-5-5-7-7-7-7-7-7--|
|-------------------------------5-5-5-5-5-5--|
     pm / \      pm/                       \

|----------------------------5-5---------------|
|----------------------------6-6---------------|
|-----------------3-3--3-3---7-7---------------|
|----------------------------7-7--7-7-7-7-7-7--|
|--2-2-2-2-2-2----5-5--5-5---5-5--5-5-5-5-5-5--|
|--1-1-1-1-1-1---------------------------------|
pm/           \                pm/           \

|----5---------------5-1--------------------|
|----5---------------5\1--------------------|
|----6---------------6\2---------4---2---5--|
|----7---------------7\3--------------------|
|----7-------7-------7\3--------------------|
|----5-5-555-5-5-555-5\1---0-0-0---0---0----|
    pm/             \   pm/     \ / \ / \

|-------------------------------------|
|-------------------------------------|
|-5/////7--9-7---8-11---7-----9---7---|
|-------------------------------------|
|---------------0------0---0-0---0----|
|-------------------------------------|

|---------------------------------------|
|---------------------------------10----|
|-5/////7--9-7----9------7-----11----9--|
|-------------------11------12----------|
|---------------0------0----------------|
|---------------------------------------|

|-------------------------------------|
|-------------------------------------|
|-5/////7--9-7---8-11---7-----9---7---|
|-------------------------------------|
|---------------0------0---0-0---0----|
|-------------------------------------|

|---------------------------------------|
|---------------------------------10----|
|-5/////7--9-7----9------7-----11----9--|
|-------------------11------12----------|
|---------------0------0----------------|
|---------------------------------------|

|-17-17-17-15-15-15--b14-14---------------|
|---------------------------15----------15|
|------------------------------14----14---|
|---------------------------------17------|
|-----------------------------------------|
|-----------------------------------------|

|14-15-------b14-17-b14-17-b15-14-17-15-14|
|------14-15------------------------------|
|-----------------------------------------|
|-----------------------------------------|
|-----------------------------------------|
|-----------------------------------------|

|-17-17-17-15-15-15--b14-14---------------|
|---------------------------15----------15|
|------------------------------14----14---|
|---------------------------------17------|
|-----------------------------------------|
|-----------------------------------------|

|14-15-------------------14-------14h15p14|
|------14-15-17-14-15-17----15-17---------|
|-----------------------------------------|
|-----------------------------------------|
|-----------------------------------------|
|-----------------------------------------|

|17-14-17-15-14--|
|----------------|
|----------------|
|----------------|
|----------------|
|----------------|

|----2-2---2-2--5----------------------------|
|----3-3---3-3--6----------------------------|
|----4-4---4-4--7----------------------------|
|----4-4-4-4-4--7---7-7-7-7-7-7--------------|
|----2-2-2-2-2--5---5-5-5-5-5-5-7-7-7-7-7-7--|
|-------------------------------5-5-5-5-5-5--|
     pm / \      pm/                       \

|----------------------------5-5---------------|
|----------------------------6-6---------------|
|-----------------3-3--3-3---7-7---------------|
|----------------------------7-7--7-7-7-7-7-7--|
|--2-2-2-2-2-2----5-5--5-5---5-5--5-5-5-5-5-5--|
|--1-1-1-1-1-1---------------------------------|
pm/           \                pm/           \

|----5-----------------------------------------|
|----5-----------------------------------------|
|----6-----------------------------------------|
|----7-----------------------------------------|
|----7-------7--------2-----2-----2---2-----2-2|
|----5-5-555-5-5-555--1-1-1-1-1-1-1-1-1-1-1-1-1|
    pm/             \pm/   \ /   \ / \ /   \

|-------------------------------------|
|-------------------------------------|
|-5/////7--9-7---8-11---7-----9---7---|
|-------------------------------------|
|---------------0------0---0-0---0----|
|-------------------------------------|

|---------------------------------------|
|---------------------------------10----|
|-5/////7--9-7----9------7-----11----9--|
|-------------------11------12----------|
|---------------0------0----------------|
|---------------------------------------|

|-------------------------------------|
|-------------------------------------|
|-5/////7--9-7---8-11---7-----9---7---|
|-------------------------------------|
|---------------0------0---0-0---0----|
|-------------------------------------|

|---------------------------------------|
|---------------------------------10----|
|-5/////7--9-7----9------7-----11----9--|
|-------------------11------12----------|
|---------------0------0----------------|
|---------------------------------------|

|--2-2-2--2-2//4--5-5-5--5-5//7--5-5-5--5-5--3-3-3--3-3-|
|--3-3-3--3-3//5--6-6-6--6-6//8--5-5-5--5-5--3-3-3--3-3-|
|--4-4-4--4-4//6--7-7-7--7-7//9--6-6-6--6-6--4-4-4--4-4-|
|--4-4-4--4-4//6--7-7-7--7-7//9--7-7-7--7-7--5-5-5--5-5-|
|--2-2-2--2-2//4--5-5-5--5-5//7--7-7-7--7-7--5-5-5--5-5-|
|--------------------------------5-5-5--5-5--3-3-3--3-3-|

|--2-2-2--2-2//4--5-5-5--5-------5-5-5--5-5--3-3-3--3-3-|
|--3-3-3--3-3//5--6-6-6--6-------5-5-5--5-5--3-3-3--3-3-|
|--4-4-4--4-4//6--7-7-7--7-7//9--6-6-6--6-6--4-4-4--4-4-|
|--4-4-4--4-4//6--7-7-7--7-------7-7-7--7-7--5-5-5--5-5-|
|--2-2-2--2-2//4--5-5-5--5-5//7--7-7-7--7-7--5-5-5--5-5-|
|--------------------------------5-5-5--5-5--3-3-3--3-3-|

|-----------------------------------|
|-----------------------------------|
|--9\\7\\9-9--11-11\\9--9-9-////16--|
|-----------------------------------|
|--7\\5\\7-7--9--9-\\7--7-7-////14--|
|-----------------------------------|

|-17-17-17-15-15-15--b14-14---------------|
|---------------------------15----------15|
|------------------------------14----14---|
|---------------------------------17------|
|-----------------------------------------|
|-----------------------------------------|

|14-15-------b14-17-b14-17-b15-14-17-15-14|
|------14-15------------------------------|
|-----------------------------------------|
|-----------------------------------------|
|-----------------------------------------|
|-----------------------------------------|

|-17-17-17-15-15-15--b14-14---------------|
|---------------------------15----------15|
|------------------------------14----14---|
|---------------------------------17------|
|-----------------------------------------|
|-----------------------------------------|

|14-15-------------------14-------14h15p14|
|------14-15-17-14-15-17----15-17---------|
|-----------------------------------------|
|-----------------------------------------|
|-----------------------------------------|
|-----------------------------------------|

|17-14-17-15-14--|
|----------------|
|----------------|
|----------------|
|----------------|
|----------------|


|--4/3--3-3--3/6-------------------5------------|
|----------------------------------5------------|
|--5/4--4-4--4/7--7-7-7-7-7-7-7-7--6------------|
|----------------------------------7------------|
|--3/2--2-2--2/5--5-5-5-5-5-5-5-5--7-7-7-7-7-7-7|
|----------------------------------5-5-5-5-5-5-5|
               pm/               \pm/           \

|--------------------------------------------------|
|---------------------3-3--3-3--3/5----------------|
|--3------------------4-4--4-4--4/7-7-7-7-7-7-7-7-7|
|--3-3-3-3-3-3-3-3-3-------------------------------|
|--2-2-2-2-2-2-2-2-2--2-2--2-2--2/5-5-5-5-5-5-5-5-5|
|--------------------------------------------------|
  pm/               \            pm/               \

|---------------------|
|---------------------|
|-----------6-p4h6p4--|
|--------7------------|
|--5--7---------------|
|---------------------|
pick 6 then whait like 1 second and do pull off

|-------------------------------------|
|-------------------------------------|
|-5/////7--9-7---8-11---7-----9---7---|
|-------------------------------------|
|---------------0------0---0-0---0----|
|-------------------------------------|

|---------------------------------------|
|---------------------------------10----|
|-5/////7--9-7----9------7-----11----9--|
|-------------------11------12----------|
|---------------0------0----------------|
|---------------------------------------|

|-------------------------------------|
|-------------------------------------|
|-5/////7--9-7---8-11---7-----9---7---|
|-------------------------------------|
|---------------0------0---0-0---0----|
|-------------------------------------|

|---------------------------|
|---------------------------|
|-5/////7-9-9-9--7-6-6-6--6-|
|---------------------------|
|---------------------------|
|---------------------------|

|--2-2-2--2-2//4--5-5-5--5-5//7--5-5-5--5-5--3-3-3--3-3-|
|--3-3-3--3-3//5--6-6-6--6-6//8--5-5-5--5-5--3-3-3--3-3-|
|--4-4-4--4-4//6--7-7-7--7-7//9--6-6-6--6-6--4-4-4--4-4-|
|--4-4-4--4-4//6--7-7-7--7-7//9--7-7-7--7-7--5-5-5--5-5-|
|--2-2-2--2-2//4--5-5-5--5-5//7--7-7-7--7-7--5-5-5--5-5-|
|--------------------------------5-5-5--5-5--3-3-3--3-3-|

|--2-2-2--2-2//4--5-5-5--5-5//7--5-5-5--5-5--3-3-3--3-3-|
|--3-3-3--3-3//5--6-6-6--6-6//8--5-5-5--5-5--3-3-3--3-3-|
|--4-4-4--4-4//6--7-7-7--7-7//9--6-6-6--6-6--4-4-4--4-4-|
|--4-4-4--4-4//6--7-7-7--7-7//9--7-7-7--7-7--5-5-5--5-5-|
|--2-2-2--2-2//4--5-5-5--5-5//7--7-7-7--7-7--5-5-5--5-5-|
|--------------------------------5-5-5--5-5--3-3-3--3-3-|


|--2--4--5--3---2--4--5--5-|
|--3--5--6--3---3--5--6--5-|
|--4--6--7--4---4--6--7--6-|
|--4--6--7--5---4--6--7--7-|
|--2--4--5--5---2--4--5--7-|
|-----------3------------5-|

|-------------------------------------------|
|-------------------------------------------|
|----14-14-----14-14-14-----14--12--11--12--|
|-------------------------------------------|
|----12-12-----12-12-12-----12--10--9---10--|
|-------------------------------------------|

                     these are 14 and 12 \/
|-------------------------------------------------------|
|-------------------------------------------------------|
|----14-14-----14-14-14-----14--16--14---14141414141414-|
|-------------------------------------------------------|
|----12-12-----12-12-12-----12--14--12---12121212121212-|
|-------------------------------------------------------|

|-------------------------------------------|
|-------------------------------------------|
|----14-14-----14-14-14-----14--12--11--12--|
|-------------------------------------------|
|----12-12-----12-12-12-----12--10--9---10--|
|-------------------------------------------|

|--------------------------|
|--------------------------|
|----10\\9------5-5//7//5--|
|--------------------------|
|----12\\11-----7-7//9//7--|
|--------------------------|

|-------------------------------------------|
|-------------------------------------------|
|----14-14-----14-14-14-----14--12--11--12--|
|-------------------------------------------|
|----12-12-----12-12-12-----12--10--9---10--|
|-------------------------------------------|

                     these are 14 and 12 \/ dont palm mute
|-------------------------------------------------------|
|-------------------------------------------------------|
|----14-14-----14-14-14-----14--16--14---14141414141414-|
|-------------------------------------------------------|
|----12-12-----12-12-12-----12--14--12---12121212121212-|
|-------------------------------------------------------|

|-------------------------------------------|
|-------------------------------------------|
|----14-14-----14-14-14-----14--12--11--12--|
|-------------------------------------------|
|----12-12-----12-12-12-----12--10--9---10--|
|-------------------------------------------|

|--------------------------|
|--------------------------|
|----10\\9------5-5//7//5--|
|--------------------------|
|----12\\11-----7-7//9//7--|
|--------------------------|


|--2---5---5---3---2-2-2---5-5-5--5----------------|
|--3---6---5---3---3-3-3---6-6-6--5----------------|
|--4---7---6---4---4-4-4---7-7-7--6----------------|
|--4---7---7---5---4-4-4---7-7-7--7----------------|
|--2---5---7---5---2-2-2---5-5-5--7-7-7-7-7-7-7-7-7|
|----------5---3------------------5-5-5-5-5-5-5-5-5|
                               pm/                 

|-----------------------3-3-3-3--3-3-3-3--3-3-3|
|-----------------------3-3-3-3--3-3-3-3--3-3-3|
|-----------------------4-4-4-4--4-4-4-4--4-4-4|
|-----------------------5-5-5-5--5-5-5-5--5-5-5|
|7-7-7-7-7-7-7-7-7-7-7--5-5-5-5--5-5-5-5--5-5-5|
|5-5-5-5-5-5-5-5-5-5-5--3-3-3-3--3-3-3-3--3-3-3|
                      \

|--2-2-2--2-2//4--5-5-5--5-5//7--5-5-5--5-5--3-3-3--3-3-|
|--3-3-3--3-3//5--6-6-6--6-6//8--5-5-5--5-5--3-3-3--3-3-|
|--4-4-4--4-4//6--7-7-7--7-7//9--6-6-6--6-6--4-4-4--4-4-|
|--4-4-4--4-4//6--7-7-7--7-7//9--7-7-7--7-7--5-5-5--5-5-|
|--2-2-2--2-2//4--5-5-5--5-5//7--7-7-7--7-7--5-5-5--5-5-|
|--------------------------------5-5-5--5-5--3-3-3--3-3-|

|17-17-17-15-15-15--b14--17-17-17-15-15-15-b14-17///|
|---------------------------------------------------|
|---------------------------------------------------|
|---------------------------------------------------|
|---------------------------------------------------|
|---------------------------------------------------|

|-5-5-|
|-5-5-|
|-6-6-|
|-7-7-|
|-7-7-|
|-5-5-|

|-17-17-17-15-15-15--b14-14---------------|
|---------------------------15----------15|
|------------------------------14----14---|
|---------------------------------17------|
|-----------------------------------------|
|-----------------------------------------|

|14-15-------------------14-------14h15p14|
|------14-15-17-14-15-17----15-17---------|
|-----------------------------------------|
|-----------------------------------------|
|-----------------------------------------|
|-----------------------------------------|

|17-14-17-15-14--|
|----------------|
|----------------|
|----------------|
|----------------|
|----------------|

|-------------------------------------------|
|-------------------------------------------|
|----14-14-----14-14-14-----14--12--11--12--|
|-------------------------------------------|
|----12-12-----12-12-12-----12--10--9---10--|
|-------------------------------------------|

                     these are 14 and 12 \/
|-------------------------------------------------------|
|-------------------------------------------------------|
|----14-14-----14-14-14-----14--16--14---14141414141414-|
|-------------------------------------------------------|
|----12-12-----12-12-12-----12--14--12---12121212121212-|
|-------------------------------------------------------|

|-------------------------------------------|
|-------------------------------------------|
|----14-14-----14-14-14-----14--12--11--12--|
|-------------------------------------------|
|----12-12-----12-12-12-----12--10--9---10--|
|-------------------------------------------|

|--------------------------|
|--------------------------|
|----10\\9------5-5//7//5--|
|--------------------------|
|----12\\11-----7-7//9//7--|
|--------------------------|

keys

pm =palm mute

/\ \/=just an arrow to the the one its talking to

/// \\\=slide  

credit 
Oliver240693
garciawr2

http://www.youtube.com/watch?v=nWMfB5QrSGU

            
            
Suggest correction
Creating personal tab
Creating personal tab
You can edit any tab online and save it as your Personal.

You can edit, replace or remove any tab part or add personal notes – all changes will be seen only by you.

Personal tabs can be accessed anytime from any device, even offline.
Learn more »
Give kudos to tab author, rate the tab!
1 2 3 4 5
comments
print report bad tab
guest
You may want to rate the tab now too:
select rating
Wanna post a correction for this tab? Suggest correction