Oops, an error
Loading. Please wait.

Handguns And Second Chances bass

version 1
version 1

Whole song

Interactive

769 views 1 this week
no commentswrite comment
1 2 3 4 5
1 last vote to show rating
add to favorites
×
Save as Personal and add changes to this tab that will be seen only by you. Learn more ›
×
You can save this tab as Personal to edit and correct it or add notes. All changes will be seen only by you. Learn more »
launch autoscroll
font size
0
reset
guitar tuner
edit
Autoscroll
slow
fast
+/-
esc
set tempo
stop
My First tab =D
great song, I think this tab is correct and I hope you enjoy it!


Into with guitar- play twice
G|-------------|
D|3~----6~-----|
A|-------------|
D|-------------|

second part of intro- play 4 times (I think its 4 times)
G|-----------------------------|
D|-----------------------------|
A|----------4444444444---------|
D|3333333333-------------------|

Verse- play 4 times, after first 2 times the timing changes but the notes are in the 
order (listen close)
G|-------------------|
D|-------------------|
A|------44-----------|
D|33---------66-11---|

Chorus- play twice, just listen out for the amount of notes
G|---------------------------------------------|
D|---------------------------------------------|
A|------------------44444444-------------------|
D|33333333-66666666----------66666-1111--------|

VERSE AGAIN
CHORUS

Bit after second chorus (break down)
G|-----------------------------|
D|-----------------------------|
A|------------4~---------------|
D|3~----6~----------6~--1~-----|PLAY TWICE

THEN (its pretty much the chorus)
G|---------------------------------------------|
D|---------------------------------------------|
A|------------------44444444-------------------|
D|33333333-66666666----------66666-1111--------|PLAY TWICE

Bit before last chorus
G|-------------|
D|-------------|
A|-(scream)----
D|3~-------/11-

THEN PLAY CHORUS

and finally and with-
G|-------------|
D|-------------|
A|-------------|
D|33-----------|

I think thats perfect
Contact me for corrections =]
Take Care

            
            
Suggest correction
Creating personal tab
Creating personal tab
You can edit any tab online and save it as your Personal.

You can edit, replace or remove any tab part or add personal notes – all changes will be seen only by you.

Personal tabs can be accessed anytime from any device, even offline.
Learn more »
Give kudos to tab author, rate the tab!
1 2 3 4 5
comments
print report bad tab
guest
You may want to rate the tab now too:
select rating
Wanna post a correction for this tab? Suggest correction