Oops, an error
Loading. Please wait.

Lost And Found intro tab

version 1
version 1

Intro

Whole song

Interactive

3,904 views 3 this week
1 commentread comment
1 2 3 4 5
x 3
add to favorites
×
Save as Personal and add changes to this tab that will be seen only by you. Learn more ›
×
You can save this tab as Personal to edit and correct it or add notes. All changes will be seen only by you. Learn more »
launch autoscroll
font size
0
reset
how to read this tab
guitar tuner
edit
Autoscroll
slow
fast
+/-
esc
set tempo
stop
if you listen to the acoustic version you can hear the extra notes that you can't hear 
the original album version...

guitar 1
E-------------------------------------1~---------------------------1~----|
B----------3~------------6~--------------3~---------------1~------1~-----|
G------3~------------3~-----------3~---------3~-------2~--------2~-------|
D---5~---5~-------3~---3~------1~---1~--------------3~---3~--------------|
A------------------------------------------------------------------------|
D------------------------------------------------------------------------|

guitar 2
E----13-13-13-13-13-13-13-13-11-11-11-11-11-11-13-13-10-10-10-10-11-11-11-11-|
B--11-11-11-11-11-11-11-11-11-11-11-11-11-11-11-11-11-11-11-11-11-11-11-11---|
G----------------------------------------------------------------------------|
D----------------------------------------------------------------------------|
A----------------------------------------------------------------------------|
D----------------------------------------------------------------------------|

E----8--8--8--8--8--8--8--8---|
B--11-11-11-11-11-11-11-11----|
G-----------------------------|
D-----------------------------|
A-----------------------------|
D-----------------------------|

            
            
Suggest correction
Creating personal tab
Creating personal tab
You can edit any tab online and save it as your Personal.

You can edit, replace or remove any tab part or add personal notes – all changes will be seen only by you.

Personal tabs can be accessed anytime from any device, even offline.
Learn more »
Give kudos to tab author, rate the tab!
1 2 3 4 5
comments
print report bad tab
1 comment total.
0 reply
gnsnrse 10 Jun 15, 2007 05:13 PM

if you cant hear the note then how do you even know that they are played.
they could just be in the acoustic version.
does mean they are in the original

guest
You may want to rate the tab now too:
select rating
Wanna post a correction for this tab? Suggest correction