Oops, an error
Loading. Please wait.

The Path bass

758 views 1 this week
no commentswrite comment
1 2 3 4 5
3 more votes to show rating
add to favorites
×
Save as Personal and add changes to this tab that will be seen only by you. Learn more ›
×
You can save this tab as Personal to edit and correct it or add notes. All changes will be seen only by you. Learn more »
launch autoscroll
font size
0
reset
guitar tuner
edit
Autoscroll
slow
fast
+/-
esc
set tempo
stop
-------------------------------------------------------------------------------
                             THE PATH - Senses Fail
-------------------------------------------------------------------------------
Tabbed by: slarbiter(Carlos Velasquez)
E-mail: fakelol131@yahoo.com

Tuning: Drop C, CGCF

The ">" mean to play the note more than once because 
I'm too lazy to count every  note and stuff.

Badass bass intro:
F|----------------------------------------------------|
C|----------------------------------------------------|
G|----(play this 3 times)-then...---------------------| On the last time slide from 1 to 12.
C|-----5-8-5-0---4-7-4-0----------1-1-1-1/4-4-4-4-----|

Prechorus:
F|-------------------------------|
C|-------------------------------|
G|(just a bunch of this this lol)|
C|--5-5-5-5-5-5-5-5-5-5-5-5-5----|

Chorus:
F|----------------------|--------------|
C|----------------------|--------------|
G|----------------------|--------------|
C|--0-0----0-0----8>-7>-|--0>----8>-7>-|

Play the intro again.

2nd Prechorus:
F|-----------------------|
C|--(play this twice)----|
G|-----------------------|
C|----12\--0>------------|

Now play the chorus again.

Bridge:
F|--------------------------------------------|--------|
C|(after the prettyful guitar play this twice)|then...-|
G|--------------------------------------------|--------|
C|-------------5>---0>---1>---4>--------------|---0~---|

Breakdown: "^" means bend the string.
F|------------------------------------------------------------|
C|------------------------------------------------------------|
G|----------5\------^---^----^----^------------3-----------4--| x2
C|---00-00------000h7-0h7--0h3--0h3--0h3-3-5-6---6-5-3-5-6----|

F|------------------------------------------------------------|
C|------------------------------------------------------------|
G|----------5\------^---^----^----^------------3-----------4--| x2
C|---00000------000h7-0h7--0h3--0h3--0h3-3-5-6---6-5-3-5-6----|

Ending:
F|----------------------------------|
C|--^-------------^-------------^---|
G|--5-------------5-------------5\--|
C|----0-0-0-0-0-0---0-0-0-0-0-0-----|

And there you go.

            
            
Suggest correction
Creating personal tab
Creating personal tab
You can edit any tab online and save it as your Personal.

You can edit, replace or remove any tab part or add personal notes – all changes will be seen only by you.

Personal tabs can be accessed anytime from any device, even offline.
Learn more »
Give kudos to tab author, rate the tab!
1 2 3 4 5
comments
print report bad tab
guest
You may want to rate the tab now too:
select rating
Wanna post a correction for this tab? Suggest correction