Oops, an error
Loading. Please wait.

The Path tab

version 2
version 2

Whole song

136 views 1 this week
no commentswrite comment
1 2 3 4 5
3 more votes to show rating
add to favorites
×
Save as Personal and add changes to this tab that will be seen only by you. Learn more ›
×
You can save this tab as Personal to edit and correct it or add notes. All changes will be seen only by you. Learn more »
launch autoscroll
font size
0
reset
how to read this tab
guitar tuner
edit
Autoscroll
slow
fast
+/-
esc
set tempo
stop
Senses Fail - The Path
Tabbed by: vppark2
E-mail: linkinp751@gmail.com

Tuning: Drop C

All credit goes out to this guy. I'll tab out the other songs he did. https://www.youtube.com/watch?v=j3-f65rfXno

D|---------------------------------------------------------------------------|
A|---------------------------------------------------------------------------|
F|---------------------------------------------------------------------------|
C|---------------------------------------------------------------------------|x3
G|5--8--4--7--5--7--4--5-----------------------------------------------------|
C|5--8--4--7--5--7--4--5-----------------------------------------------------|

D|-----------------|
A|-----------------|
F|-----------------|
C|-----------------|
G|1-1-1-1-4-4-4-4--|
C|1-1-1-1-4-4-4-4--|

Repeat both sections again

D|--------------------------------------------------------------------------------------|
A|--------------------------------------------------------------------------------------|
F|--------------------------------------------------------------------------------------|
C|--------------------------------------------------------------------------------------|
G|5-------5-----------------------------------------------------------------------------|
C|5-------5-----------------------------------------------------------------------------|

D|5-----5-----5-----5-----------------------------------------------------------------|
A|6-----6-----6-----6-----------------------------------------------------------------|
F|7-----7-----7-----7-----------------------------------------------------------------|
C|7-----7-----7-----7-----------------------------------------------------------------|
G|-------------------------5-----5----------------------------------------------------|
C|-------------------------5-----5----------------------------------------------------|

D|5----5----5----5-------------------------------------|
A|6----6----6----6-------------------------------------|
F|7----7----7----7-------------------------------------|
C|7----7----7----7-------------------------------------|
G|----------------------5---5---5---5---5---5---5---5--|
C|----------------------5---5---5---5---5---5---5---5--|
                            .   .   .   .   .   .   .
D|---------------------------------------------------------------------------|
A|---------------------------------------------------------------------------|
D|---------------------------------------------------------------------------|
C|---------------------------------------------------------------------------|
G|5---5---5---5---5---5---5---5---5---5---5---5---5---5---5---5---5---5---5--|
C|5---5---5---5---5---5---5---5---5---5---5---5---5---5---5---5---5---5---5--|
      .   .   .   .   .   .   .   .   .   .   .   .   .   .   .   .   .   .
D|---------------------------------------------------------------------------|
A|---------------------------------------------------------------------------|
D|---------------------------------------------------------------------------|
C|---------------------------------------------------------------------------|
G|5---5---5---5---5---5---5---5---5---5---5---5---5---5---5---5---5---5---5--|
C|5---5---5---5---5---5---5---5---5---5---5---5---5---5---5---5---5---5---5--|
  .   .   .   .   .       .   .   .   .   .   .   .   .   .   .   .   .   .
D|---------------------------------------|
A|---------------------------------------|
D|---------------------------------------|
C|---------------------------------------|
G|5---5---5---5---5---5---5---5---5---5--|
C|5---5---5---5---5---5---5---5---5---5--|
  .   .   .   .   .   .   .   .   .   .

Chorus
D|-------------------------------|
A|-------------------------------|
D|-------------------------------|
C|-------------------------------|
G|5---5---5---5---5---5---5---5--|
C|5---5---5---5---5---5---5---5--|
      .   .   .   .   .   .   .
D|--------------------------------------------------------------------------------|
A|--------------------------------------------------------------------------------|
D|--------------------------------------------------------------------------------|x2
C|---------9---0----0-------------------------------------------------------------|
G|-----7-------0----0-------------------------------------------------------------|
C|9------------0----0-------------------------------------------------------------|

D|----------------------------------------------------------------------|
A|----------------------------------------------------------------------|
D|10--10---10--10--10--10---(10)--10---10---9---9---7---7---5----14-14--|
C|8---8----8---8---8---8----(8)---x----x----x---x---x---x---x----x--x---|
G|8---8----8---8---8---8----(8)---8----8----7---7---5---5---3----12-12--|
C|8---8----8---8---8---8----(8)-----------------------------------------|

D|----------------------------------------------------------------------------|
A|----------------------------------------------------------------------------|
D|14-14--14-14----(14)-14-14-12-12-10-10-9----10-10--10-10--10-10---(10)--10--|
C|x--x---x--x------x---x--x--x--x--x--x--x----x--x---x--x---x--x-----x----x---|
G|12-12--12-12----(12)-12-12-10-10-8--8--7----8--8---8--8---8--8-----8----8---|
C|----------------------------------------------------------------------------|

D|----------------|
A|----------------|
D|10-9--9-7--7-5--|
C|x--x--x-x--x-x--|
G|8--7--7-5--5-3--|
C|----------------|

D|--------------------------------------------------------------------------------------|
A|--------------------------------------------------------------------------------------|
D|----------------9--------------------------------------------------10--10-------------|
C|-----------7--------0------0-------------------9---0-----0---------8---8--------------|
G|----9---------------0------0---------------7-------0-----0---------8---8--------------|
C|--------------------0------0-----------9-----------0-----0---------8---8--------------|

D|------------------|
A|------------------|
D|10--10----10--10--|
C|8---8-----8---8---|
G|8---8-----8---8---|
C|8---8-----8---8---|

D|---------------------------------------------------------------------------|
A|---------------------------------------------------------------------------|
D|(10)--10--10--9--9--7--7--5-----14-14--14-14--14-14--(14)--14--14--12--12--|
C|(8)---x---x---x--x--x--x--x-----x--x---x--x---x--x----x----x---x---x---x---|
G|(8)---8---8---7--7--5--5--3-----12-12--12-12--12-12--(12)--12--12--10--10--|
C|(8)------------------------------------------------------------------------|

D|---------------------------------------------------------------|
A|---------------------------------------------------------------|
D|10--10--9----10-10--10-10--10-10--(10)--10--10--9--9--7--7--5--|
C|x---x---x----x--x---x--x---x--x----x----x---x---x--x--x--x--x--|
G|8---8---7----8--8---8--8---8--8---(8)---8---8---7--7--5--5--3--|
C|---------------------------------------------------------------|

D|----------------------------------------------------------------------------|
A|----------------------------------------------------------------------------|
D|----------------------------------------------------------------------------|
C|----------------------------------------------------------------------------|
G|5=-8--4--7--5--7--4--5----5--8--4--7--5--7--4--5----5--8--4--7--5--7--4--5--|
C|5--8--4--7--5--7--4--5----5--8--4--7--5--7--4--5----5--8--4--7--5--7--4--5--|

D|-----------------|
A|-----------------|
D|-----------------|
C|-----------------|
G|1-1-1-1-4-4-4-4--|
C|1-1-1-1-4-4-4-4--|

D|---------------------------------------------------------------------------------------|
A|---------------------------------------------------------------------------------------|
D|---------------------------------------------------------------------------------------|
C|---------------------------------------------------------------------------------------|
G|5--------5-----------------------------------------------------------------------------|
C|5--------5-----------------------------------------------------------------------------|

D|5-----5-----5-----5----------------|
A|6-----6-----6-----6----------------|
D|7-----7-----7-----7----------------|
C|7-----7-----7-----7----------------|
G|---------------------------5----5--|
C|---------------------------5----5--|

D|<5>------------------------------------------------------------------------|
A|<5>------------------------------------------------------------------------|
D|---------------------------------------------------------------------------|
C|---------------------------------------------------------------------------|
G|--------------12\---------0----0----0----0------0--0--0--0--0--0--0--0--0--|
C|--------------12\---------0----0----0----0------0--0--0--0--0--0--0--0--0--|
                                 .    .    .         .  .  .  .  .  .  .  .
D|--------------------------------------------------------------------|
A|--------------------------------------------------------------------|
D|--------------------------------------------------------------------|
C|--------------------------------------------------------------------|
G|0--0--0--0--0--0--0--0--0--0--0--0--0--0--0----12\------0--0--0--0--|
C|0--0--0--0--0--0--0--0--0--0--0--0--0--0--0----12\------0--0--0--0--|
  .  .  .  .  .  .  .  .  .  .  .  .  .  .  .                .  .  .
D|-----------------------------------------------------------------------|
A|-----------------------------------------------------------------------|
D|-----------------------------------------------------------------------|
C|-----------------------------------------------------------------------|
G|0--0--0--0--0--0--0------0--0--0--0--0--0--0------0--0--0--0--0--0--0--|
C|0--0--0--0--0--0--0------0--0--0--0--0--0--0------0--0--0--0--0--0--0--|
  .  .  .  .  .  .  .      .  .  .  .  .  .  .      .  .  .  .  .  .  .
Chorus
D|-----------------------------------------------------------------------|
A|-----------------------------------------------------------------------|
D|----------------------------------9------------------------------------|
C|------------------------------7------0---0------------------9---0---0--|
G|0--0--0--0--0--0--0-----9------------0---0--------------7-------0---0--|
C|0--0--0--0--0--0--0------------------0---0----------9-----------0---0--|
  .  .  .  .  .  .  .
D|-----------------------------------------------------------------------|
A|-----------------------------------------------------------------------|
D|10-10----10-10----10-10-----(10)----10----10----9----9----7----7----5--|
C|8--8-----8--8-----8--8------(8)-----x-----x-----x----x----x----x----x--|
G|8--8-----8--8-----8--8------(8)-----8-----8-----7----7----5----5----3--|
C|8--8-----8--8-----8--8------(8)----------------------------------------|

D|------------------------------------------------------------------------|
A|------------------------------------------------------------------------|
D|14-14--14-14--14-14---(14)--14--14--12--12--10--10--9-----10-10--10-10--|
C|x--x---x--x---x--x-----x----x---x---x---x---x---x---x-----x--x---x--x---|
G|12-12--12-12--12-12---(12)--12--12--10--10--8---8---7-----8--8---8--8---|
C|------------------------------------------------------------------------|

D|--------------------------------------|
A|--------------------------------------|
D|10-10----(10)--10--10--9--9--7--7--5--|
C|x--x------x----x---x---x--x--x--x--x--|
G|8--8-----(8)---8---8---7--7--5--5--3--|
C|--------------------------------------|

D|--------------------------------------------------------------------------------------|
A|--------------------------------------------------------------------------------------|
D|----------------9--------------------------------------------------10--10-------------|
C|-----------7--------0------0-------------------9---0-----0---------8---8--------------|
G|----9---------------0------0---------------7-------0-----0---------8---8--------------|
C|--------------------0------0-----------9-----------0-----0---------8---8--------------|

D|------------------|
A|------------------|
D|10--10----10--10--|
C|8---8-----8---8---|
G|8---8-----8---8---|
C|8---8-----8---8---|

D|-------------------------------------------|
A|-------------------------------------------|
D|(10)----10----10----9----9----7----7----5--|
C|(8)-----x-----x-----x----x----x----x----x--|
G|(8)-----8-----8-----7----7----5----5----3--|
C|(8)----------------------------------------|

D|------------------------------------------------------------------------|
A|------------------------------------------------------------------------|
D|14-14--14-14--14-14---(14)--14--14--12--12--10--10--9-----10-10--10-10--|
C|x--x---x--x---x--x-----x----x---x---x---x---x---x---x-----x--x---x--x---|
G|12-12--12-12--12-12---(12)--12--12--10--10--8---8---7-----8--8---8--8---|
C|------------------------------------------------------------------------|

D|-----------------------------------------5-----------------|
A|--------------------------------------------------------7--|
D|10-10----(10)--10--10--9--9--7--7--5----------7------------|
C|x--x------x----x---x---x--x--x--x--x---------------7-------|
G|8--8-----(8)---8---8---7--7--5--5--3-----------------------|
C|-----------------------------------------------------------|

D|---------------------------------------------------------------------10--12--|
A|----------------------------8------------7------------11---------------------|
D|7-------------7--------------------7-----------7-------------12--------------|
C|------7--------------7-------------------------------------------------------|
G|-----------------------------------------------------------------------------|
C|-----------------------------------------------------------------------------|

D|/14-----------------------------------------------------------------------------|
A|--------------------------------------------------------------------------------|
D|--------------------------------------------------------------------------------|
C|--------------------------------------------------------------------------------|
G|--------------------------------------------------------------------------------|
C|--------------------------------------------------------------------------------|

D|------------------------------------------------------------|
A|------------------------------------------------------------|
D|------------------------------------------------------------|
C|7---5-----5-----5---5--------(5)---5---5-----5---5---5---5--|
G|7---5-----5-----5---5--------(5)---5---5-----5---5---5---5--|
C|7---5-----5-----5---5--------(5)---5---5-----5---5---5---5--|

D|------------------------------------------------------------------------|
A|------------------------------------------------------------------------|
D|------------------------------------------------------------------------|
C|5---0-----0---0---0---------(0)---0---0-----0---0---0---0-----0------1--|
G|5---0-----0---0---0---------(0)---0---0-----0---0---0---0-----0------1--|
C|5---0-----0---0---0---------(0)---0---0-----0---0---0---0-----0------1--|

D|--------------------------------------------------------------------------------|
A|--------------------------------------------------------------------------------|
D|--------------------------------------------------------------------------------|
C|1--------1--------1-------------------------------------------------------------|
G|1--------1--------1-------------------------------------------------------------|
C|1--------1--------1-------------------------------------------------------------|

D|----------------------------------------------------------------------------|
A|----------------------------------------------------------------------------|
D|----------------------------------------------------------------------------|
C|(1)---1---1------1---1---1---1-------1---3------3-----3----3-------(3)---3 -|
G|(1)---1---1------1---1---1---1-------1---3------3-----3----3-------(3)---3--|
C|(1)---1---1------1---1---1---1-------1---3------3-----3----3-------(3)---3--|

D|-------------------|
A|-------------------|
D|-------------------|
C|3---3---3---3---3--|
G|3---3---3---3---3--|
C|3---3---3---3---3--|

Repeat the last 5 tab pieces again

D|------------------------------------------------------------------|
A|------------------------------------------------------------------|
D|------------------------------------------------------------------|
C|0------------------(0)------------------(0)------------------(0)--|
G|0------------------(0)------------------(0)------------------(0)--|
C|0------------------(0)------------------(0)------------------(0)--|

Outro
D|--------------------------------------------------------------------------|
A|--------------------------------------------------------------------------|
D|----------------7\--------------------------------------------------------|
C|----------------7\--------------------------------------------------------|
G|0-0-----0-0-----5\----0-0-0-0---------------------------------------------|
C|0-0-----0-0-----------0-0-0-0----7-----0--0--7-----0--0--3-------0--0--3--|
    .     . .             . . .             .           .             .
D|----------------------------------------------|
A|----------------------------------------------|
D|----------------------------------------------|
C|----------------------------------------------|
G|-------------------------3-----------------3--|
C|0--0--3-----3---5-----6-----6--5--3--5--6-----|
     .
Repeat the last 2 tab pieces again

D|---------------------------------------------------------------------------|
A|---------------------------------------------------------------------------|
D|----------------7\---------------------------------------------------------|
C|----------------7\---------------------------------------------------------|
G|0-0-0-0-0-0-0-0-5\----0-0-0-0----------------------------------------------|
C|0-0-0-0-0-0-0-0-------0-0-0-0-----7-----0--0--7-----0--0--3-------0--0--3--|
    . . . . . . .         . . .              .           .             .
D|----------------------------------------------|
A|----------------------------------------------|
D|----------------------------------------------|
C|----------------------------------------------|
G|-------------------------3-----------------3--|
C|0--0--3-----3---5-----6-----6--5--3--5--6-----|
     .
Repeat the last 2 tab pieces again

D|-------------------------------------|
A|-------------------------------------|
D|-------------------------------------|
C|0-------------0-------------------0--|
G|0-0-0-0-0-0-0-0-----0-0-0-0-0-0-0-0--|
C|0-0-0-0-0-0-0-0-----0-0-0-0-0-0-0-0--|
      . . . . .         . . . . . .
************************************

| /   slide up
| \   slide down
| h   hammer-on
| p   pull-off
| ~   vibrato
| +   harmonic
| x   Mute note
| b   Bend
| pb  Pre-bend
| br  Bend release
| pbr Pre-bend release
| brb Bend release bend

************************************

            
            
Suggest correction
Creating personal tab
Creating personal tab
You can edit any tab online and save it as your Personal.

You can edit, replace or remove any tab part or add personal notes – all changes will be seen only by you.

Personal tabs can be accessed anytime from any device, even offline.
Learn more »
Give kudos to tab author, rate the tab!
1 2 3 4 5
comments
print report bad tab
guest
You may want to rate the tab now too:
select rating
Wanna post a correction for this tab? Suggest correction