Oops, an error
Loading. Please wait.

To All The Crowded Rooms tab

version 1
version 1

Whole song

Interactive

1,191 views 1 this week
3 commentsread comments
1 2 3 4 5
1 last vote to show rating
add to favorites
×
Save as Personal and add changes to this tab that will be seen only by you. Learn more ›
×
You can save this tab as Personal to edit and correct it or add notes. All changes will be seen only by you. Learn more »
launch autoscroll
font size
0
reset
how to read this tab
guitar tuner
edit
Autoscroll
slow
fast
+/-
esc
set tempo
stop
Tabbed by: dylan nolff
Email:n/a

Tuning:drop d, my guitar is one fret higher than normal drop d tuning. please rate and post comments

intro
e|---------------------------------------------------------------------|
B|---------------------------------------------------------------------|
G|-12-12-12--10-10-13-13--12-12-12--10-10-13-13--12-12-12--10-10--8-8--|
D|--x--x--x---x--x--x--x---x--x--x---x--x--x--x---x--x--x---x--x--x-x--|
A|-10-10-10---8--8-11-11--10-10-10---8--8-11-11--10-10-10---8--8--6-6--|
E|---------------------------------------------------------------------|

verse
e|--------------------------------------------------------------|
B|--------------------------------------------------------------|
G|-3-3-3--3-3-3--3-3-3--7-7-7--7-7-7--7-7-7--10-----------------|
D|-1-1-1--1-1-1--1-1-1--5-5-5--5-5-5--5-5-5---8-----------------|
A|-1-1-1--1-1-1--1-1-1--5-5-5--5-5-5--5-5-5---8-----------------|
E|-1-1-1--1-1-1--1-1-1--5-5-5--5-5-5--5-5-5---8-----------------|

pre-chorus
e|---------------------------------------------------------------|
B|---------------------------------------------------------------|
G|---------------------------------------------------------------|
D|-7-9-10--4-4-4--11-13-14--7-7-7--4-4-4--2-2-2------------------|
A|-7-7--7--4-4-4--11-11-11--7-7-7--4-4-4--2-2-2------------------|
E|-7-7--7--4-4-4--11-11-11--7-7-7--4-4-4--2-2-2------------------|

chorus
e|----------------------------------------|
B|----------------------------------------|
G|-3-3-3-3-3--3-3-3-3-3--12-12-12--8-8-8--|
D|-1-1-1-1-1--1-1-1-1-1--10-10-10--6-6-6--|
A|-1-1-1-1-1--1-1-1-1-1--10-10-10--6-6-6--|
E|-1-1-1-1-1--1-1-1-1-1--10-10-10--6-6-6--|

After 2nd chorus
P.m ALL!!!!!!!!
e|---------------------------------------------------------------|
B|---------------------------------------------------------------|
G|---------------------------------------------------------------|      X2
D|---------------------------------------------------------------|
A|-1-1-1-1-1-1-1-1-1-1-1-1-1-1--5-5-5-5-5-5-5-5-5-5-5------------|
E|-1-1-1-1-1-1-1-1-1-1-1-1-1-1--5-5-5-5-5-5-5-5-5-5-5------------|

Bridge
e|-------------------------------|
B|-------------------------------|
G|-------------------------------|
D|-8-8-8-8-8--5-5-5--7/8-7/8-----|         X2
A|-x-x-x-x-x--x-x-x--x/x-x/x-----|
E|-6-6-6-6-6--3-3-3--5/6-5/6-----|

| p.m palm mute
| /  slide up
| \  slide down
| h  hammer-on
| p  pull-off
| ~  vibrato
| +  harmonic
| x  Mute note
===============================================================================

            
            
Suggest correction
Creating personal tab
Creating personal tab
You can edit any tab online and save it as your Personal.

You can edit, replace or remove any tab part or add personal notes – all changes will be seen only by you.

Personal tabs can be accessed anytime from any device, even offline.
Learn more »
Give kudos to tab author, rate the tab!
1 2 3 4 5
comments
print report bad tab
3 comments total.
0 reply
eblood21 43 Dec 01, 2006 12:24 PM

what do you mean your guitar is one fret higher than drop d? is the tap drop d or half step down?

0 reply
Yozoniac 176 Jul 31, 2007 04:00 PM

I only need to look at it to know what he did. It doesn't matter what tuning your guitar is. How about you not be a jackass, tune your shit to something everyone can accustom to, like maybe hmm, Standard tuning with the E dropped D (Drop D)?

0 reply
Yozoniac 176 Jul 31, 2007 04:01 PM

When it comes to tuning, don't make it difficult for everyone else.
No matter how easy it is to drop a guitar a step down, it's just inconvenient.

guest
You may want to rate the tab now too:
select rating
Wanna post a correction for this tab? Suggest correction