Oops, an error
Loading. Please wait.

Yellow Angels tab

version 2
version 2

Whole song

Interactive

1,054 views 1 this week
no commentswrite comment
1 2 3 4 5
2 more votes to show rating
add to favorites
×
Save as Personal and add changes to this tab that will be seen only by you. Learn more ›
×
You can save this tab as Personal to edit and correct it or add notes. All changes will be seen only by you. Learn more »
launch autoscroll
font size
0
reset
how to read this tab
guitar tuner
edit
Autoscroll
slow
fast
+/-
esc
set tempo
stop
-------------------------------------------------------------------------------
                             Yellow Angels - Senses Fail
-------------------------------------------------------------------------------
Email:6stringfreak14@live.com

Tuning:CGCFAD

This is an easy song to follow with... I will just put out the riffs and then say where 
go.

riff 1 (clean, delay, reverb)

D|-------------------------------|
A|------18------17------13--15---|
F|--14------14------14--------14-|
C|15--15--15--15--15--15--15-----|
G|-------------------------------|
C|-------------------------------|

after 17 seconds of running time, there seems to be a second guitar if you listen
it sounds like a strat or tele because it has a
 high pitch to it, but I could be wrong and it could just be a synth but this is what it 
playing.

riff 2

e|-----------------------|
B|----------10-----------|
G|----10----------9-10---|
D|-10----10----10-----10-|
A|8--8--8--8--8--8-8-----|
E|-----------------------|

at the chorus there is two guitars, but they are playing the same thing first time around

riff 3-hopefully i don't have to tell you that this is distorted.
 just listen for when you should switch up for the slides.

e|-----|-------------|---------------------------------|---|
B|-----|-------------|---------------------------------|---|
G|-----|-55/12-12-12-|---------12-12-12-14-14-14-14-14-|---|
D|--3--|-xx/x--x--x--|-0000000-x--x--x--x--x--x--x--x--|-8-|
A|--3--|-33/10-10-10-|-0000000-10-10-10-12-12-12-12-12-|-8-|
E|--3--|-------------|-0000000-0--0--0--0--0--0--0--0--|-8-|

2nd guitar during open strumming w/ the octaves

G|14-14-14-17-17-17-17-17---|
D|x--x--x--x--x--x--x--x----|
A|12-12-12-15-15-15-15-15---|
E|0--0--0--0--0--0--0--0----|

riff 4 - 2nd verse palm muting

e|------------------------------------------------------------------------------------------|
B|------------------------------------------------------------------------------------------|

 x2
D|------------------------------------------------------------------------------------------|
A|------3---------3----3------3---------3----3------0---------0----0------0---------0----8--|
E|-3333-3-3333333-3-33-3-3333-3-3333333-3-33-3-0000-0-0000000-0-00-0-0000-0-0000000-0-00-8--|
   ....   .......   ..   ....   .......   ..   ....   .......   ..   ....   .......   ..

Prechorus 2
e|--------------|  On the last 8th fret note release the palm mute gradually
B|--------------|
G|--------------|
D|--------------|
A|---8-10-5-8---|
E|---8-10-5-8---|
     . .  .

The Bridge

guitar 1

e|----------------------------------------------|\------------ \ /
B|---------------------------------------------------- /------ \
G|---------------------------------------------------- / ----- \
D|---------------------------------------------------- /  ---- \
A|3-3-8-3-3-3-8-3-8-3-7s8-0-0-8-0-0-0-8888887--------- /   --- \
E|3-3-3-3-3-3-3-3-3-3-3-3-0-0-0-0-0-0-8888887--------- /    -- \
                                                       \
guitar 2                                                ========   x2
                                                       /
e|----------------------------------------------|    -- /
B|----------------------------------------------|   --- /
G|----------------------------------------------|  ---- /
D|3-3-7-3-3-3-7-3-7-3-5s7-0-0-7-0-0-0-8888887---| ----- /
A|3-3-3-3-3-3-3-3-3-3-3-3-0-0-0-0-0-0-8888887---|------ /
E|3-3-3-3-3-3-3-3-3-3-3-3-0-0-0-0-0-0-8888887---------- /

2nd part of bridge

guitar 1

e|----------------------------|    e|---------------------------------|
B|----------------------------|    B|-----------------------------6---|
G|----------------------------|    G|----------10-10-10-10-9-9-10-5---|
D|----------------------------| x2 D|----------8--8--8--8--8-8-8--3---|
A|3-3-8-------8-----8---7s8---|    A|5-5-8-5-5-8--8--8--8--8-8-8--3---|
E|3-3---3-3-3---3-3---3-------|    E|5-5-5-5-5-8--8--8--8--8-8-8--3---|

guitar 2

e|----------------------------|    e|---------------------------------|
B|----------------------------|    B|---------------------------------|
G|----------------------------|    G|---------------------------------|
D|3-3-7-------7-----7---5s7---| x2 D|5-5-7-5-5-8--8--8--8--7-7-7--7---|
A|3-3-------------------------|    A|5-5-5-5-5-8--8--8--8--8-8-8--3---|
E|3-3---3-3-3---3-3---3-------|    E|5-5-5-5-5-8--8--8--8--8-8-8--3---|


| /  slide up
| \  slide down
| h  hammer-on
| p  pull-off
| ~  vibrato
| +  harmonic
| x  Mute note
============================================================================

            
            
Suggest correction
Creating personal tab
Creating personal tab
You can edit any tab online and save it as your Personal.

You can edit, replace or remove any tab part or add personal notes – all changes will be seen only by you.

Personal tabs can be accessed anytime from any device, even offline.
Learn more »
Give kudos to tab author, rate the tab!
1 2 3 4 5
comments
print report bad tab
guest
You may want to rate the tab now too:
select rating
Wanna post a correction for this tab? Suggest correction