Oops, an error
Loading. Please wait.

Arise tab

version 3
version 3

Whole song

Interactive

1,798 views 3 this week
no commentswrite comment
1 2 3 4 5
3 more votes to show rating
add to favorites
×
Save as Personal and add changes to this tab that will be seen only by you. Learn more ›
×
You can save this tab as Personal to edit and correct it or add notes. All changes will be seen only by you. Learn more »
launch autoscroll
font size
0
reset
how to read this tab
guitar tuner
backing track
0:00
0:00
edit
Autoscroll
slow
fast
+/-
esc
set tempo
stop
#----------------------------------PLEASE NOTE---------------------------------#
#This file is the author's own work and represents their interpretation of the #
#song. You may only use this file for private study, scholarship, or research. #
#------------------------------------------------------------------------------#

ARISE
As recorded by Sepultura
(From the 1991 Album ARISE)

Transcribed by Jeff Jacobson, Paul Pappas, and Steve Gorenberg
	

Words by Max Cavalera and Andreas Kisser Music by Sepultura

G5
3 5 x x x x
	
F#5
2 4 x x x x
	
Ab5
4 6 x x x x
	
F5
1 3 x x x x

E5
0 2 x x x x

Gtr I (E A D G B E) - 'Untitled'
Gtr II (E A D G B E) - 'Untitled'
Gtr III (E A D G B E) - 'Untitled'

 Intro
  Fast rock Q=238
               G5F#Ab5F5      E5
 4/4
  Gtr II
  W            E E Q  Q  Q    Q   Q     H
               | | |  |  |    |
               / / /  /  /    /

  Gtr I
                                PM--------------|
                              |3| |-3-| |3| |-3-|
  Wx2          E E Q  Q  Q    Q E E E E Q E E E E
|------------|--------------|---------------------|
|------------|--------------|---------------------|
|------------|--------------|---------------------|
|------------|--------------|---------------------|
|------------|-5s4-6--3--3--|-2---------2---------|
|------------|-3s2-4--1--1--|-0-0-0-0-0-0-0-0-0-0-|


              F5      E5
                                       2/4
  H           Q  Q    Q   Q   H         W
              |  |    |
              /  /    /

  PM--------|           PM  PM  PM  PM
  |-3-| |-3-|
  E E E E E E Q  Q    E E E E E E E E   E E Q
|-------------------|-----------------|--------||
|-------------------|-----------------|--------||
|-------------------|-----------------|--------||
|-------------------|-----------------|--------||
|-------------3--3--|-2---7---6---6---|-6-6-7--||
|-0-0-0-0-0-0-1--1--|-0-0---0---0---0-|--------||


    N.C.                                             F5
   4/4                                            2/4
    Gtr I
    PM--------------|   PM    PM  PM
    |-3-| |-3-| |-3-|
    E E E E E E E E E E E   E E E E E   E   Q   4x E Q  E
||------------------------|---------------------||--------||
||o-----------------------|--------------------o||--------||
||------------------------|---------------------||--------||
||------------------------|---------------------||--------||
||o-------------------7---|-6---6---6---6---7--o||---3--3-||
||--0-0-0-0-0-0-0-0-0---0-|---0---0-------------||-0-1--1-||
|
|   Gtr II
|   PM--------------|   PM    PM  PM
|   |-3-| |-3-| |-3-|               |--3--|
|   E E E E E E E E E E E   E E E E E E   E Q   4x E Q  E
||------------------------|---------------------||--------||
||o-----------------------|--------------------o||--------||
||------------------------|---------------------||--------||
||------------------------|---------------------||--------||
||o-------------------7---|-6---6---6-6---6-7--o||---3--3-||
||--0-0-0-0-0-0-0-0-0---0-|---0---0-------------||-0-1--1-||


    E5                                  F5
   4/4
    Gtrs I, II
      PM------------------------------|
    |3| |-3-| |3| |-3-|   |-3-| |-3-|
    Q E E E E Q E E E E   E E E E E E E Q  E  4x
||----------------------|---------------------||
||o---------------------|--------------------o||
||----------------------|---------------------||
||----------------------|---------------------||
||o-2-------------------|---------------3--3-o||
||--0-0-0-0-0-0-0-0-0-0-|-0-0-0-0-0-0-0-1--1--||


  E5  N.C.
  Gtr I
    PM  PM  PM  PM    PM  PM
  E E E E E E E E   E E E E E   E   Q
|-----------------|--------------------|
|-----------------|--------------------|
|-----------------|--------------------|
|-----------------|--------------------|
|-2---7---6---6---|-6---6---6---6---7--|
|-0-0---0---0---0-|---0---0------------|
|
| Gtr II
|   PM  PM  PM  PM    PM  PM
|                           |--3--|
| E E E E E E E E   E E E E E E   E Q
|-----------------|--------------------|
|-----------------|--------------------|
|-----------------|--------------------|
|-----------------|--------------------|
|-2---7---6---6---|-6---6---6-6---6-7--|
|-0-0---0---0---0-|---0---0------------|


  PM--|   PM  PM  PM    PM  PM
  |-3-|
  E E E E E E E E E   E E E E E   E   Q
|-------------------|---------------------|
|-------------------|---------------------|
|-------------------|---------------------|
|-------------------|---------------------|
|-------7---6---6---|-6---6---6---6---7---|
|-0-0-0---0---0---0-|---0---0-------------|
|
| PM--|   PM  PM  PM    PM  PM
| |-3-|                       |--3--|
| E E E E E E E E E   E E E E E E   E Q
|-------------------|---------------------|
|-------------------|---------------------|
|-------------------|---------------------|
|-------------------|---------------------|
|-------7---6---6---|-6---6---6-6---6-7---|
|-0-0-0---0---0---0-|---0---0-------------|


                                                                         F5
  PM--|   PM  PM  PM    PM  PM             PM--|   PM  PM  PM    PM  PM|
  |-3-|                                    |-3-|
  E E E E E E E E E   E E E E E   E   Q    E E E E E E E E E   E E E E E Q  E
|-------------------|--------------------|-------------------|----------------||
|-------------------|--------------------|-------------------|----------------||
|-------------------|--------------------|-------------------|----------------||
|-------------------|--------------------|-------------------|----------------||
|-------7---6---6---|-6---6---6---6---7--|-------7---6---6---|-6---6-----3--3-||
|-0-0-0---0---0---0-|---0---0------------|-0-0-0---0---0---0-|---0---0-0-1--1-||
|
| PM--|   PM  PM  PM    PM  PM             PM--|   PM  PM  PM    PM  PM|
| |-3-|                       |--3--|      |-3-|
| E E E E E E E E E   E E E E E E   E Q    E E E E E E E E E   E E E E E Q  E
|-------------------|--------------------|-------------------|----------------||
|-------------------|--------------------|-------------------|----------------||
|-------------------|--------------------|-------------------|----------------||
|-------------------|--------------------|-------------------|----------------||
|-------7---6---6---|-6---6---6-6---6-7--|-------7---6---6---|-6---6-----3--3-||
|-0-0-0---0---0---0-|---0---0------------|-0-0-0---0---0---0-|---0---0-0-1--1-||


 1st, 3rd Verses
  $
  E5                                  F5
  Gtrs I, II
    PM------------------------------|
  |3| |-3-| |3| |-3-|   |-3-| |-3-|
  Q E E E E Q E E E E   E E E E E E E Q  E
|---------------------|--------------------|
|---------------------|--------------------|
|---------------------|--------------------|
|---------------------|--------------------|
|-2-------------------|---------------3--3-|
|-0-0-0-0-0-0-0-0-0-0-|-0-0-0-0-0-0-0-1--1-|


  E5                                  F5
    PM------------------------------|
  |3| |-3-| |3| |-3-|   |-3-| |-3-|
  Q E E E E Q E E E E   E E E E E E E Q  E
|---------------------|---------------------|
|---------------------|---------------------|
|---------------------|---------------------|
|---------------------|---------------------|
|-2-------------------|---------------3--3--|
|-0-0-0-0-0-0-0-0-0-0-|-0-0-0-0-0-0-0-1--1--|


    PM------------------------------|
  |3| |-3-| |3| |-3-|   |-3-| |-3-|
  Q E E E E Q E E E E   E E E E E E E Q  E
|---------------------|--------------------|
|---------------------|--------------------|
|---------------------|--------------------|
|---------------------|--------------------|
|-2-------------------|---------------3--3-|
|-0-0-0-0-0-0-0-0-0-0-|-0-0-0-0-0-0-0-1--1-|
|
| Gtr III
| W                     W
|---------------------|--------------------|
|---------------------|--------------------|
|---------------------|--------------------|
|---------------------|--------------------|
|---------------------|--------------------|
|---------------------|--------------------|


    PM------------------------------|
  |3| |-3-| |3| |-3-|   |-3-| |-3-|
  Q E E E E Q E E E E   E E E E E E E  Q  E
|---------------------|----------------------||
|---------------------|----------------------||
|---------------------|----------------------||
|---------------------|----------------------||
|-2-------------------|----------------3--3--||
|-0-0-0-0-0-0-0-0-0-0-|-0-0-0-0-0-0-0--1--1--||
|
| W                     H           E  Q.
|---------------------|----------------------||
|---------------------|----------------------||
|---------------------|---------------10s====||
|---------------------|----------------------||
|---------------------|----------------8s====||
|---------------------|----------------------||


  G5                     F5          Ab5
  Gtrs I, II
                                     |3| |-3-| |-3-| |-3-|
   W           +H     +E Q       E   Q E E E E E E E E E E
   |            |      | |       |   | | | | | | | | | | |
   /            /      / /       /   / o / / / / / / / / /

  Gtr III
   W           +H.          +Q       W
|-----------|----------------------|-----------------------|
|-----------|----------------------|-----------------------|
|-12--------|-(12)---------(12)\---|-----------------------|
|-----------|----------------------|-----------------------|
|-10--------|-(10)---------(10)\---|-----------------------|
|-----------|----------------------|-----------------------|


                F5      G5                     F5
  |-3-| |-3-|
  E E E E E E E  Q  E    W           +H     +E Q       E
  | | | | | | |  |  |    |            |      | |       |
  / / / / / / /  /  /    /            /      / /       /

  H           E  Q.      W           +H.          +Q
|---------------------|-----------|-----------------------|
|---------------------|-----------|-----------------------|
|---------------10s===|=12--------|-(12)---------(12)\----|
|---------------------|-----------|-----------------------|
|----------------8s===|=10--------|-(10)---------(10)\----|
|---------------------|-----------|-----------------------|


               To Coda
  Ab5                     G5F#Ab5F5      E5  N.C.
  Gtr I
    PM----------------|                    PM  PM  PM  PM    PM  PM
  |3| |-3-| |-3-| |-3-|
  Q E E E E E E E E E E   E E Q  Q  Q    E E E E E E E E   E E E E E   E   Q
|-----------------------|--------------|-----------------|---------------------|
|-----------------------|--------------|-----------------|---------------------|
|-----------------------|--------------|-----------------|---------------------|
|-----------------------|--------------|-----------------|---------------------|
|-6---------------------|-5s4-6--3--3--|-2---7---6---6---|-6---6---6---6---7---|
|-4-4-4-4-4-4-4-4-4-4-4-|-3s2-4--1--1--|-0-0---0---0---0-|---0---0-------------|
|
| Gtr II
|   PM----------------|                    PM  PM  PM  PM    PM  PM
| |3| |-3-| |-3-| |-3-|                                            |--3--|
| Q E E E E E E E E E E   E E Q  Q  Q    E E E E E E E E   E E E E E E   E Q
|-----------------------|--------------|-----------------|---------------------|
|-----------------------|--------------|-----------------|---------------------|
|-----------------------|--------------|-----------------|---------------------|
|-----------------------|--------------|-----------------|---------------------|
|-6---------------------|-5s4-6--3--3--|-2---7---6---6---|-6---6---6-6---6-7---|
|-4-4-4-4-4-4-4-4-4-4-4-|-3s2-4--1--1--|-0-0---0---0---0-|---0---0-------------|


  PM--|   PM  PM  PM    PM  PM
  |-3-|
  E E E E E E E E E   E E E E E   E   Q
|-------------------|--------------------|
|-------------------|--------------------|
|-------------------|--------------------|
|-------------------|--------------------|
|-------7---6---6---|-6---6---6---6---7--|
|-0-0-0---0---0---0-|---0---0------------|
|
| PM--|   PM  PM  PM    PM  PM
| |-3-|                       |--3--|
| E E E E E E E E E   E E E E E E   E Q
|-------------------|--------------------|
|-------------------|--------------------|
|-------------------|--------------------|
|-------------------|--------------------|
|-------7---6---6---|-6---6---6-6---6-7--|
|-0-0-0---0---0---0-|---0---0------------|


  PM--|   PM  PM  PM    PM  PM
  |-3-|
  E E E E E E E E E   E E E E E   E   Q
|-------------------|--------------------|
|-------------------|--------------------|
|-------------------|--------------------|
|-------------------|--------------------|
|-------7---6---6---|-6---6---6---6---7--|
|-0-0-0---0---0---0-|---0---0------------|
|
| PM--|   PM  PM  PM    PM  PM
| |-3-|                       |--3--|
| E E E E E E E E E   E E E E E E   E Q
|-------------------|--------------------|
|-------------------|--------------------|
|-------------------|--------------------|
|-------------------|--------------------|
|-------7---6---6---|-6---6---6-6---6-7--|
|-0-0-0---0---0---0-|---0---0------------|


                                F5
  Gtrs I, II
  PM--|   PM  PM  PM    PM  PM|
  |-3-|
  E E E E E E E E E   E E E E E Q  E
|-------------------|----------------||
|-------------------|----------------||
|-------------------|----------------||
|-------------------|----------------||
|-------7---6---6---|-6---6-----3--3-||
|-0-0-0---0---0---0-|---0---0-0-1--1-||


 2nd Verse
  E5                                  F5
    PM------------------------------|
  |3| |-3-| |3| |-3-|   |-3-| |-3-|
  Q E E E E Q E E E E   E E E E E E E Q  E
|---------------------|---------------------|
|---------------------|---------------------|
|---------------------|---------------------|
|---------------------|---------------------|
|-2-------------------|---------------3--3--|
|-0-0-0-0-0-0-0-0-0-0-|-0-0-0-0-0-0-0-1--1--|


  E5                                  F5
    PM------------------------------|
  |3| |-3-| |3| |-3-|   |-3-| |-3-|
  Q E E E E Q E E E E   E E E E E E E Q  E
|---------------------|--------------------|
|---------------------|--------------------|
|---------------------|--------------------|
|---------------------|--------------------|
|-2-------------------|---------------3--3-|
|-0-0-0-0-0-0-0-0-0-0-|-0-0-0-0-0-0-0-1--1-|


  E5                                  F5
    PM------------------------------|
  |3| |-3-| |3| |-3-|   |-3-| |-3-|
  Q E E E E Q E E E E   E E E E E E E Q  E
|---------------------|---------------------|
|---------------------|---------------------|
|---------------------|---------------------|
|---------------------|---------------------|
|-2-------------------|---------------3--3--|
|-0-0-0-0-0-0-0-0-0-0-|-0-0-0-0-0-0-0-1--1--|


  E5                                  F5      E5
                                              Gtr I
  W                     W                     W          E E E   E   E E E E
                                              |          | | |   |   | | | |
                                              /          o / /   /   / / / /

                                              Gtr II
    PM------------------------------|                    PM----------------|
  |3| |-3-| |3| |-3-|   |-3-| |-3-|                          |--3--|
  Q E E E E Q E E E E   E E E E E E E Q  E    W          E E E E   E E E E E
|---------------------|--------------------||----------|---------------------|
|---------------------|--------------------||----------|---------------------|
|---------------------|--------------------||----------|---------------------|
|---------------------|--------------------||----------|---------------------|
|-2-------------------|---------------3--3-||-2--------|---------------------|
|-0-0-0-0-0-0-0-0-0-0-|-0-0-0-0-0-0-0-1--1-||-0--------|-0-0-0-0---0-0-0-0-0-|


  F5E5                                       F5E5
  E Q.   +H       +E   E   E   E   E E E E   E Q.   +H       E E E E E E E E
  | |     |        |   |   |   |   | | | |   | |     |       | | | | | | | |
  / /     /        /   o   /   /   / / / /   / /     /       o / / / / / / /

                   PM--------------------|                   PM------------|
                   |--3--| |--3--|
  E Q.   +H        E E   E E E   E E E E E   E Q.   +H       E E E E E E E E
|---------------|--------------------------|---------------|-----------------||
|---------------|--------------------------|---------------|-----------------||
|---------------|--------------------------|---------------|-----------------||
|---------------|--------------------------|---------------|-----------------||
|-3s2----(2)----|--------------------------|-3s2----(2)----|-----------------||
|-1s0----(0)----|--0-0---0-0-0---0-0-0-0-0-|-1s0----(0)----|-0-0-0-0-0-0-0-0-||


    F5E5  F#Ab5    F5E
    E E E E H      E E E E E E E E
    | |   | |      | | | | | | | |
    / /   / /      / o / / / / / /

                   PM------------|
    E E E E H      E E E E E E E E  4x
||---------------|------------------||
||o--------------|-----------------o||
||---------------|------------------||
||---------------|------------------||
||o-3s2---4s6----|-----------------o||
||--1s0---2s4----|-0-0-0-0-0-0-0-0--||


    N.C.                                  AbG5  AbG5    F#5
    Gtrs I, II
    PM------------------------------|         PM    PM
    E E E E E E E E   E E E E E E E E  4x E E E E E E E E
||------------------|------------------||-----------------|
||o-----------------|-----------------o||-----------------|
||------------------|------------------||-----------------|
||------------------|------------------||-----------------|
||o-----------------|-----------------o||-6s5---6s5---5s4-|
||--4-3-0-4-3-0-3-2-|-0-2-1-0-0-0-0-0--||-4s3-0-4s3-0-3s2-|


  PM    PM------|       PM    PM      PM    PM--|
  E E E E E E E E   E E E E E E E E   E E E E E E  Q
|-----------------|-----------------|------------------||
|-----------------|-----------------|------------------||
|-----------------|-----------------|------------------||
|-----------------|-----------------|------------------||
|---4s3-----------|-6s5---6s5---5s4-|---4s3------------||
|-0-2s1-0-0-0-0-0-|-4s3-0-4s3-0-3s2-|-0-2s1-0-0-0-12\--||


    N.C.                                                    AbG5  AbG5  Ab5
    PM--------------------------------------------------|       PM    PM
    E E E E E E E E   E E E E E E E S S   E E E E E E E E   E E E E E E Q
||------------------|-------------------|-----------------|-----------------||
||o-----------------|-------------------|-----------------|----------------o||
||------------------|-------------------|-----------------|-----------------||
||------------------|-------------------|-----------------|-----------------||
||o-----------------|-------------------|-----------------|-6s5---6s5---6--o||
||--0-0-0-0-0-0-0-0-|-0-0-0-0-0-0-0-0-0-|-0-0-0-0-0-0-0-0-|-4s3-0-4s3-0-4---||


 Guitar Solo
  N.C.
  Gtr III
                    \7____________________________________________________/
   H               +H                    +H.                       +E     E
|-------------------------------------|---------------------------------------|
|-<3>-------------(<3>)---------------|-(<3>)---------------------(<3>)-------|
|-------------------------------------|-----------------------------------3---|
|-------------------------------------|---------------------------------------|
|-------------------------------------|---------------------------------------|
|-------------------------------------|---------------------------------------|
|
| Gtrs I, II
|  PM-----------------------------------------------------------------------|
|  E  S S S S S S   S   S S S S S S S     E   S S S S S S S S S S   S   S S S
|-------------------------------------|---------------------------------------|
|-------------------------------------|---------------------------------------|
|-------------------------------------|---------------------------------------|
|-------------------------------------|---------------------------------------|
|-------------------------------------|---------------------------------------|
|--0--0-0-0-0-0-0---0---0-0-0-0-0-0-0-|---0---0-0-0-0-0-0-0-0-0-0---0---0-0-0-|


  Ab5    G5  AbG5    Ab5G5       AbG5  N.C.
   \0.5_________/            \7________________/
  +H           +Q    +E E   +H.           +E   E
|-------------------------|----------------------|
|-------------------------|----------------------|
|-(3)----------(3)---(3)--|-------------------12-|
|-----------------------0-|-(0)-----------(0)----|
|-------------------------|----------------------|
|-------------------------|----------------------|
|
|          PM      PM        PM      PM---|
|  E     E E E  E  E  E E    E   E E E Q   Q
|-------------------------|----------------------|
|-------------------------|----------------------|
|-------------------------|----------------------|
|-------------------------|----------------------|
|--6s====5---6s=5-----6s5-|------6s5-------------|
|--4s====3-0-4s=3--0--4s3-|--0---4s3-0-4---1-----|


                   \6/                  \5.5/       \5_____
                                        |-----3-----|
   +Q       +E     E      +E     +E     E       E   E
|---------------------------------------------------------|
|---------------------------------------------------------|
|-(12)-----(12)---11-----(11)---(11)---11p======7h==9-----|
|---------------------------------------------------------|
|---------------------------------------------------------|
|---------------------------------------------------------|
|
|   PM-----------------------------------------------------
|   E  S S   S  S  S   S   S  S   S  S  S     S   S     S
|---------------------------------------------------------|
|---------------------------------------------------------|
|---------------------------------------------------------|
|---------------------------------------------------------|
|---------------------------------------------------------|
|---0--0-0---0--0--0---0---0--0---0--0--0-----0---0-----0-|


   /                    \0.5/           \1/    \1
              |----3----|               |----3-----|
   E  +E     +E    E    E       E   E   E      E   E
|--------------------------------------------------------|
|--------------------------------------------------------|
|-12-(12)---(12)p==9h==12p======9---9p==7h====10p==7-----|
|--------------------------------------------------------|
|--------------------------------------------------------|
|--------------------------------------------------------|
|
|----------------------------------------------------|
|  E   S  S   S  S   S        S S S S S S   S    S   S
|--------------------------------------------------------|
|--------------------------------------------------------|
|--------------------------------------------------------|
|--------------------------------------------------------|
|--------------------------------------------------------|
|--0---0--0---0--0---0--------0-0-0-0-0-0---0----0---0---|


  Ab5  G5          Ab5 G5       Ab5 G5          Ab5 G5        N.C.
        \1/        \1/      \1/ \1/      \1/    \1/  \1/
                   ~~~          ~~~                  ~~~~
   S S +S   +S   E E   +E   E   E    E   S    S E    S   E.   +E  +E  E a E
|--------------------------------------|------------------------------------|
|--------------------------------------|------------------------------------|
|-12p9-(9)--(9)h12p9---(9)h12p==9h==12p|=9h==12p9h==12p==9----(9)-(9)s3-6s9-|
|--------------------------------------|------------------------------------|
|--------------------------------------|------------------------------------|
|--------------------------------------|------------------------------------|
|
|                PM         PM           PM                 PM--------|
|  E    E        E E    E   E   E    E   E      E    E      E  Q      Q
|--------------------------------------|------------------------------------|
|--------------------------------------|------------------------------------|
|--------------------------------------|------------------------------------|
|--------------------------------------|------------------------------------|
|--6s===5----------6s===5-------6s===5-|--------6s===5----------------------|
|--4s===3--------0-4s===3---0---4s===3-|-0------4s===3------0--4------1-----|


  ~~                                 ~
  H.                     a E   E     H              E    E   E   S S
|----------------------------------|-----------------------------------|
|-9----------------------------7---|-9-------------[9]-----------7h9h==|
|------------------------6s9-------|---------------------6s==9---------|
|----------------------------------|-----------------------------------|
|----------------------------------|-----------------------------------|
|----------------------------------|-----------------------------------|
|
| PM---------------------------------------------------------------|
| E  S S S S S S S S S S   S S S S   E S S S S S S  S  S S S S S S S
|----------------------------------|-----------------------------------|
|----------------------------------|-----------------------------------|
|----------------------------------|-----------------------------------|
|----------------------------------|-----------------------------------|
|----------------------------------|-----------------------------------|
|-0--0-0-0-0-0-0-0-0-0-0---0-0-0-0-|-0-0-0-0-0-0-0--0--0-0-0-0-0-0-0---|


  Ab5G5        Ab5 G5      AbG5      AbG5  N.C.
                                     ~~~~~~~~~~
   E S S T T E   S S S S S E S S   E Q.    +E. S E  E
|--------------------------------|--------------------|
|-10p9p7-------------------------|-7-------------8-10-|
|--------9p7p6h==7h9p7p6h9p6h7h9-|---9-----(9)-9------|
|--------------------------------|--------------------|
|--------------------------------|--------------------|
|--------------------------------|--------------------|
|
|        PM            PM          PM    PM------|
|  E E   E     E   E   E   E E     E E E E  Q    Q
|--------------------------------|--------------------|
|--------------------------------|--------------------|
|--------------------------------|--------------------|
|--------------------------------|--------------------|
|--6s5---------6s==5-------6s5---|---6s5--------------|
|--4s3---0-----4s==3---0---4s3---|-0-4s3-0--4----1----|


  S  S  S S  S S  S  S E    S S  E   S T  T
|-7------------7--------------7-------------|
|---10-10-9-10---10-10-8---10---10---7h9h10-|
|-------------------------------------------|
|-------------------------------------------|
|-------------------------------------------|
|-------------------------------------------|
|
| PM-----------------------------------------
| E     S S  S S  S  S S S  S S  S S S S
|-------------------------------------------|
|-------------------------------------------|
|-------------------------------------------|
|-------------------------------------------|
|-------------------------------------------|
|-0-----0-0--0-0--0--0-0-0--0-0--0-0-0-0----|


                                     |---3---|
  S S  S  S S T  T E    S  S S T  T  E   E   E
|-7-7--------------7---------------------7---9----|
|-----10-10-7-7h10-----10-10-7h9h10-10------------|
|-------------------------------------------------|
|-------------------------------------------------|
|-------------------------------------------------|
|-------------------------------------------------|
|
|----------------------------------------------|
| E    S  S S S    S S  S  S S S     S S   S   S
|-------------------------------------------------|
|-------------------------------------------------|
|-------------------------------------------------|
|-------------------------------------------------|
|-------------------------------------------------|
|-0----0--0-0-0----0-0--0--0-0-0-----0-0---0---0--|


  Ab5  G5      Ab5   G5      Ab5 G5        Ab5 G5  N.C.
   |--3--| |---3---|         |--3--|
   E E   E E E   S S S S S S E E   E   S S S S Q   +E  +E    S S a  E
|-10-9---7---------------------------|---------------------------------|
|----------9p7---9-9-7-7-------------|----------------------12p0-------|
|------------------------9-9-6h7h==9-|-7p6---7-------------------9s12p=|
|------------------------------------|-----9---6---(6)-(6)\------------|
|------------------------------------|---------------------------------|
|------------------------------------|---------------------------------|
|
|          PM            PM            PM        PM---------|
|  E   E   E   E     E   E   E   E     E   E   E E  Q        Q
|------------------------------------|---------------------------------|
|------------------------------------|---------------------------------|
|------------------------------------|---------------------------------|
|------------------------------------|---------------------------------|
|--6s==5-------6s====5-------6s==5---|-----6s==5-----------------------|
|--4s==3---0---4s====3---0---4s==3---|-0---4s==3-0--4--------1---------|


  G5                                                     F5
  Gtrs I, II
   W                               +H              +E    Q        E
   |                                |               |    |        |
   /                                /               /    /        /

  Gtr III
   |-3--|  |-3--| |-3--|  |-3--|    |-3--|  |-3--|  |--3---|  |3|
   E  E E  E E  E E  E E  E E  E    E  E E  E E  E  E  E   E  E Q
|--------------------------------|----------------------------------|
|--------------------------------|----------------------------------|
|-10-12p8-12p7-12p8-12p7-12p5-12p|==7-12p8-12p7-12p=5-12p==7-12p9s==|
|--------------------------------|----------------------------------|
|--------------------------------|----------------------------------|
|--------------------------------|----------------------------------|


  Ab5 Ab                                               F5
   |3-| |-3-| |-3-|  |----3----|     |-3--| |-3-|
   Q  E E E E E E E  E    E    E     E  E E E E E   E  Q    E
   |  | | | | | | |  |    |    |     |  | | | | |   |  |    |
   /  o / / / / / /  /    /    /     /  / / / / /   /  /    /

   ~~~                               ~~~~
   H.                S  S    E      +H             +Q    E  S  S
|--------------------------------|-------------------------------|
|--------------------------------|-------------------------------|
|-13----------------12h13---12---|-(12)-----------(12)S==5S13-13-|
|--------------------------------|-------------------------------|
|--------------------------------|-------------------------------|
|--------------------------------|-------------------------------|


  G5
   W
   |
   /

            |-3--|  |-3--|  |-3--|
   S  S  E  E  E E  E  E E  E  E E
|-----------------------------------|
|-----------------------------------|
|-13h15p13-12h13-0-10h12-0-12h13-0--|
|-----------------------------------|
|-----------------------------------|
|-----------------------------------|


                       F5
  +H             +E    Q        E
   |              |    |        |
   /              /    /        /

   |-3--| |-3--|  |--3---| |--3---|
   E  E E E  E E  E  E   E E  E   E
|-----------------------------------|
|-----------------------------------|
|-10h12-0-8h10-0-10h12---0-8h10---7-|
|-----------------------------------|
|-----------------------------------|
|-----------------------------------|


  Ab5      Ab
   |---3---|   |----3-----|  |----3-----|   |----3-----|
   Q       E   E E        E  E     E    E   E E        E
   |       |   | |        |  |     |    |   | |        |
   /       o   / /        /  /     /    /   / /        /

                    /0.5\    \0.5/               /0.5\
  +S  S  S   S E   +E       +E        S   S E   +E
|--------------------------------------------------------|
|--------------------------------------------------------|
|-(7)h8h10p==8p7---(7)------(7)h=====10p==8p7---(7)------|
|--------------------------------------------------------|
|--------------------------------------------------------|
|--------------------------------------------------------|


  G5     F#5  Ab5      F5                     E5
   E      E   Q         Q          Q           E     E Q  H
   |      |   |         |          |           |
   /      /   /         /          /           /

   \0.5/         /0.5\  \0.5/         /0.5\    \0.5/
  +E      S S E +E     +E      S S E +E       +E     E Q  H
|-------------------------------------------|------------------|
|-------------------------------------------|------------------|
|-(7)h===10p8p7-(7)----(7)h===10p8p7-(7)----|-(7)--------------|
|-------------------------------------------|------------------|
|-------------------------------------------|------------------|
|-------------------------------------------|------------------|


    N.C.
    Gtr I
    PM--|   PM  PM  PM    PM  PM
    |-3-|
    E E E E E E E E E   E E E E E   E   Q
||--------------------|--------------------|
||o-------------------|--------------------|
||--------------------|--------------------|
||--------------------|--------------------|
||o-------7---6---6---|-6---6---6---6---7--|
||--0-0-0---0---0---0-|---0---0------------|
|
|   Gtr II
|   PM--|   PM  PM  PM    PM  PM
|   |-3-|                       |--3--|
|   E E E E E E E E E   E E E E E E   E Q
||--------------------|--------------------|
||o-------------------|--------------------|
||--------------------|--------------------|
||--------------------|--------------------|
||o-------7---6---6---|-6---6---6-6---6-7--|
||--0-0-0---0---0---0-|---0---0------------|


  PM--|   PM  PM  PM    PM  PM
  |-3-|
  E E E E E E E E E   E E E E E   E   Q
|-------------------|-----------------------||
|-------------------|----------------------o||
|-------------------|-----------------------||
|-------------------|-----------------------||
|-------7---6---6---|-6---6---6---6---7----o||
|-0-0-0---0---0---0-|---0---0---------------||
|
| PM--|   PM  PM  PM    PM  PM
| |-3-|                       |--3--|
| E E E E E E E E E   E E E E E E   E Q
|-------------------|-----------------------||
|-------------------|----------------------o||
|-------------------|-----------------------||
|-------------------|-----------------------||
|-------7---6---6---|-6---6---6-6---6-7----o||
|-0-0-0---0---0---0-|---0---0---------------||


  Gtrs I, II
    PM------|   PM----------------|    PM  PM
  E S S S S E E S S S S E   E S S Q  E E E E
|-------------------------|------------------|
|-------------------------|------------------|
|-------------------------|------------------|
|-2-----------2-----------|----------2---2---|
|-------------------------|------------------|
|---1-1-1-1-1---1-1-1-1-1-|-1-1-1-1----1---1-|


    PM------|   PM--------------------------------------|
  E S S S S E E S S S S E   E S S S S S S S S S S S S S S
|-------------------------|--------------------------------|
|-------------------------|--------------------------------|
|-------------------------|--------------------------------|
|-1-----------1-----------|--------------------------------|
|-------------------------|--------------------------------|
|---1-1-1-1-1---1-1-1-1-1-|-1-1-1-1-1-1-1-1-1-1-1-1-1-1-1--|


    PM------|   PM----------------|    PM  PM
  E S S S S E E S S S S E   E S S Q  E E E E
|-------------------------|------------------|
|-------------------------|------------------|
|-------------------------|------------------|
|-2-----------2-----------|----------2---2---|
|-------------------------|------------------|
|---1-1-1-1-1---1-1-1-1-1-|-1-1-1-1----1---1-|


                            F5 G5
                           2/4
    PM------|   PM------|
  E S S S S E E S S S S E   Q  Q
|-------------------------|-------|
|-------------------------|-------|
|-------------------------|-------|
|-1-----------1-----------|-------|
|-------------------------|-3--5--|
|---1-1-1-1-1---1-1-1-1-1-|-1--3--|


  N.C.
 4/4
    PM------|   PM----------------|    PM  PM
  E S S S S E E S S S S E   E S S Q  E E E E
|-------------------------|------------------|
|-------------------------|------------------|
|-------------------------|------------------|
|-2-----------2-----------|----------2---2---|
|-------------------------|------------------|
|---1-1-1-1-1---1-1-1-1-1-|-1-1-1-1----1---1-|


    PM------|   PM--------------------------------------|
  E S S S S E E S S S S E   E S S S S S S S S S S S S S S
|-------------------------|--------------------------------|
|-------------------------|--------------------------------|
|-------------------------|--------------------------------|
|-1-----------1-----------|--------------------------------|
|-------------------------|--------------------------------|
|---1-1-1-1-1---1-1-1-1-1-|-1-1-1-1-1-1-1-1-1-1-1-1-1-1-1--|


    PM------|   PM----------------|    PM  PM
  E S S S S E E S S S S E   E S S Q  E E E E
|-------------------------|------------------|
|-------------------------|------------------|
|-------------------------|------------------|
|-2-----------2-----------|----------2---2---|
|-------------------------|------------------|
|---1-1-1-1-1---1-1-1-1-1-|-1-1-1-1----1---1-|


                                   D.S. al Coda
                                          E5F5
    PM------|   PM------------------------|
  E S S S S E E S S S S E   E S S S S S S E Q  E
|-------------------------|----------------------||
|-------------------------|----------------------||
|-------------------------|----------------------||
|-1-----------1-----------|----------------------||
|-------------------------|---------------2-3--3-||
|---1-1-1-1-1---1-1-1-1-1-|-1-1-1-1-1-1-1-0-1--1-||


                           Outro
  &
  N.C.(Ab)                  F5E5            N.C.(E)
  PM--------------------|                   PM------------|
  |-3-| |-3-| |-3-| |-3-|
  E E E E E E E E E E E E   E Q.   +H       E E E E E E E E
|-------------------------|---------------|-----------------|
|-------------------------|---------------|-----------------|
|-------------------------|---------------|-----------------|
|-------------------------|---------------|-----------------|
|-------------------------|-3s2----(2)----|-----------------|
|-4-4-4-4-4-4-4-4-4-4-4-4-|-1s0----(0)----|-0-0-0-0-0-0-0-0-|


  F5E5            N.C.(E)           F5E5
                  PM------------|
  E Q.   +H       E E E E E E E E   E E Q  H
|---------------|-----------------|-------------*|
|---------------|-----------------|-------------*|
|---------------|-----------------|-------------*|
|---------------|-----------------|-------------*|
|-3s2----(2)----|-----------------|-3-2---------*|
|-1s0----(0)----|-0-0-0-0-0-0-0-0-|-1-0---------*|



Duration Legend
---------------
W - whole; H - half; Q - quarter; E - 8th; S - 16th; T - 32nd; X - 64th; a - acciaccatura
+ - note tied to previous; . - note dotted; .. - note double dotted
Uncapitalized letters represent notes that are staccato (1/2 duration)
Irregular groupings are notated above the duration line
Duration letters will always appear directly above the note/fret number it represents the
duration for.  Duration letters with no fret number below them represent rests.  Multi-
bar rests are notated in the form Wxn, where n is the number of bars to rest for.  Low
melody durations appear below the staff

Tablature Legend
----------------
 h   - hammer-on
 p   - pull-off
 b   - bend
 pb  - pre-bend
 r   - bend release (if no number after the r, then release immediately)
 /\  - slide into or out of (from/to "nowhere")
 s   - legato slide
 S   - shift slide
 - natural harmonic
[n]  - artificial harmonic
n(n) - tapped harmonic
 ~   - vibrato
 tr  - trill
 T   - tap
 TP  - trem. picking
 PM  - palm muting
\n/  - tremolo bar dip; n = amount to dip
 \n  - tremolo bar down
 n/  - tremolo bar up
/n\  - tremolo bar inverted dip
 =   - hold bend; also acts as connecting device for hammers/pulls
 <> - volume swell (louder/softer)
 x   - on rhythm slash represents muted slash
 o   - on rhythm slash represents single note slash

Misc Legend
-----------
 |  - bar
||  - double bar
||o - repeat start
o|| - repeat end
*|  - double bar (ending)
 :  - bar (freetime)
 $  - Segno
 &  - Coda
Tempo markers -  = BPM(8/16=s8/s16), where s8 = swing 8ths, s16 = swing 16ths


            
            
Suggest correction
Creating personal tab
Creating personal tab
You can edit any tab online and save it as your Personal.

You can edit, replace or remove any tab part or add personal notes – all changes will be seen only by you.

Personal tabs can be accessed anytime from any device, even offline.
Learn more »
Give kudos to tab author, rate the tab!
1 2 3 4 5
comments
print report bad tab
guest
You may want to rate the tab now too:
select rating
Wanna post a correction for this tab? Suggest correction