Oops, an error
Loading. Please wait.
We have an official Refuse Resist tab made by UG professional guitarists. Check out the tab »
×
46,311 views 147 this week
6 commentsread comments
1 2 3 4 5
x 19
add to favorites
×
Save as Personal and add changes to this tab that will be seen only by you. Learn more ›
×
You can save this tab as Personal to edit and correct it or add notes. All changes will be seen only by you. Learn more »
launch autoscroll
font size
0
reset
how to read this tab
guitar tuner
edit
Autoscroll
slow
fast
+/-
esc
set tempo
stop
-----------------------------------------------------
             Artist: SEPULTURA
             Album:  CHAOS A.D
             Song:   REFUSE/RESIST
-----------------------------------------------------
Tabbed by: Deathzmetal666
E-mail:    soulmaind_93@hotmail.com
-----------------------------------
Tuning:    D G C F A d
-----------
Tab legend:
-----------
 h     - Hammer-on
 p     - Pull-off
 /\    - Slide up
         Slide down
 .     - palm mute
 X     - mute note

 INTRO x4:
D|--------------------||
A|--------------------||
F|--------------------||
C|--------------------||
G|--3-3-3-3-2---------||
D|--1-1-1-1-0---------||

  RIFF A x8
D|-----------------------------||
A|-----------------------------||
F|-----------------------------||
C|-----------------------------||
G|-----------------------------||
D|-6-6-6-6-0--6-6-6-6-0--6-0-0-||

  PLAY WITH RIFF A x4
D|----------------------------------------||
A|-11-11-11-11----11-11-11-11----11-11----||
F|-------------9--------------9--------9--||
C|----------------------------------------||
G|----------------------------------------||
D|----------------------------------------||

  BREAK, PLAY x3      |       x1 ||
D|--------------------|----------||
A|--------------------|----------||
F|--------------------|----------||
C|--------6--9--9-----|-9-9-9-9--||
G|-8---2--4--7--7-----|-7-7-7-7--||
D|-6---0--------------|-0-0-0-0--||

 RHY.FIG.1  8 TIMES
D|-----------------------|
A|-----------------------|
F|-----------------------|
C|-----------------------|
G|---------2--3-5/6------|
D|-0-0-0-0-0--1-3/4------|
  . . . .

 PLAY RIFF A  3TIMES
 THE 4 TIME PLAY THIS
D|-------------------------------||
A|-------------------------------||
F|-------------------------------||
C|-------------------------------||
G|-------------------------------||
D|-6-6-6-6-0--6-6-6-6-6-6-6-6-6--||
             . . . . . . . . .

 CHORUS RIFF:
D|---------------------------|------------------------------------||
A|---------------------------|------------------------------------||
F|---------------------------|------------------------------------||
C|---------------------------|------------------------------------||
G|-10--10-10-10-10/6-6-6-6-2-|-6-8-8-8-8--6-2----10-10-10-10--6-2-||
D|-8---8--8--8---8/4-4-4-4-0-|-4/6-6-6-6--4-0--4/8--8--8--8---4-0-||

 RIFF 2 x4 (going to solo part)
D|-----------------------------||
A|-----------------------------||
F|-----------------------------||
C|-7/6-6---------7/6-6--7/6-6--||
G|-5/4-4--6/5-5--5/4-4--5/4-4--||
D|--------4/3-3----------------||

 SOLO BACKING:
D|----------------||
A|----------------||
F|----------------||
C|----------------||
G|--6/5-5---6/5-5-||
D|--4/3-3---4/3-3-||

 WELL, HERE IS THE SICK SOLO EVER!
 SOLO W/WAH!:
D|--------------------------------------------------------|
A|--------------------------------------------------------|
F|--16---16-16-16-16-16-16-16-16-16-16-16-16-16-16-/16----|
C|--------------------------------------------------------|
G|--------------------------------------------------------|
D|--------------------------------------------------------|

|
D|---------------------------------------------------------|
A|--H----P------H----P-------------------------------------|
F|-14-17-14----14-17-14----14-17-14---P------P-------------|
C|----------16----------16----------16-14--16-14--16-14----|
G|------------------------------------------------------16-|
D|---------------------------------------------------------|
|
D|-----------------------------------------|
A|---------H-------------------------------|
F|-------14-16-----------------------------|
C|-14-16-------16-14--16-14-----------4----|
G|---------------P------P---16-14-4--------|
D|----------------------------P------------|
|                                   SL.
|
D|----6-6-6-7-6-6-6-7-6-6-6-7-6-------------------|
A|------------------------------------------------|
F|------------------------------------------------|
C|-4-----------------------------4-4-4--4-4-4-----|
G|--------------------------------------------X/0-|
D|------------------------------------------------|
|
D|--------------------------------------------------------|
A|-14-14-14--16-------------------------------------------|
F|-14-14-14--16--6--2----------------6-6------------------|
C|------------------2----------------5-5------------------|
G|-----------------------------4-6-4------4-6-4---6-6-6---|
D|-----------------------/17---H-P--------H-P-------------|
|
D|----------------------------------------------------|
A|-------------------------------------------------5--|
F|-------------------------------/8-6-8-6---6--8------|
C|-------------5--7--5-7-5-5--5----P-H-P--------------|
G|-4-6-4-6-4----------H-P-----------------------------|
D|--H-P-H-P--7----------------------------------------|
|
D|-9--9/----9--9---9--9--9-12-9-12-9-------------------|
A|-9--9/--5/9--9---9--9---H----H--P---11------11-------|
F|------------------------------------------9---9------|
C|-------------------------------------------------0---|
G|-----------------------------------------------------|
D|-----------------------------------------------------|
|
D|------------9-12-9-----12-----22------|
A|------4/11---H--P---11-----21-----21/-|
F|---2----------------------------------|
C|-1------------------------------------|
G|--------------------------------------|
D|--------------------------------------|

well here is refuse resist tab, with solo :O, ok i waste like 666 hours tabin the freakin' solo
XD, too much wah-wah lol
but nvm here is, i think its right :S

 the break can be like this:
D|--------------------|----------||
A|--------------------|----------||
F|--------------------|----------||
C|-3--X-X--6--9-9-----|-9-9-9-9--||
G|-1--X-X--4--7-7-----|-7-7-7-7--||
D|--------------------|-0-0-0-0--||
idk it works too

 riff 2 can be like this:
D|----------------------------||
A|----------------------------||
F|---------------7/6-6--7/6---||
C|-7/6-6---------5/4-4--5/4---||
G|-5/4-4--6/5-5---------------||
D|--------4/3-3---------------||
idk just try it n' see wich way is better

well cya soon metal comunity



************************************

| /  Slide up
| P  Pull off
| H  Hammer on
| X  Dead note

************************************

            
            
Suggest correction
Creating personal tab
Creating personal tab
You can edit any tab online and save it as your Personal.

You can edit, replace or remove any tab part or add personal notes – all changes will be seen only by you.

Personal tabs can be accessed anytime from any device, even offline.
Learn more »
comments
print report bad tab
6 comments total. Showing first comments. show 1 bad comment
0 reply
thrasher_91 10 May 29, 2008 09:52 PM

the rest is cool

0 reply
PrimusMan8 10 Oct 29, 2008 06:40 PM

i think it sounds better in drop D but i do think sepultura plays in D standard

guest
You may want to rate the tab now too:
select rating
Wanna post a correction for this tab? Suggest correction