Oops, an error
Loading. Please wait.
We have an official Roots Bloody Roots tab made by UG professional guitarists. Check out the tab »
×
420 views 3 this week
no commentswrite comment
1 2 3 4 5
3 more votes to show rating
add to favorites
×
Save as Personal and add changes to this tab that will be seen only by you. Learn more ›
×
You can save this tab as Personal to edit and correct it or add notes. All changes will be seen only by you. Learn more »
launch autoscroll
font size
0
reset
guitar tuner
backing track
0:00
0:00
edit
Autoscroll
slow
fast
+/-
esc
set tempo
stop
Sepultura: Roots Bloody Roots
Verse
G|-----------------------|
D|-----------------------|
A|-----------------------|8x
E|-----------------------|
B|-0h1-1-1-0h1-1-1-0h1~--|

Chorus: 4x
G|-----------------------|-----------------------|
D|-----------------------|-----------------------|
A|-----------------------|-----------------------|
E|-----------------------|-----------------------|
B|-0h1-1-1-0h1-1-1-1h2~--|-0h1-1-1-0h1-1-1-1h2~--|
With Overdrive/Distortion  Clean

Repeat: Verse 8x

Verse Bridge
G|-----------------------|
D|-----------------------|
A|-----------------------|4x
E|-----------------------|
B|-6~---5~---3~---2~--3~-|

Repeat: Verse 4x
        Chorus 
        Verse 8x

Interlude
G|-----------------------|
D|-----------------------|
A|-----------------------|4x
E|-----------------------|
B|-0-0-------------------|
G|-----------------------|------------------------|
D|-----------------------|------------------------|
A|-----------------------|------------------------|
E|---7\------------------|------------------------|
B|-00--------------------|-------------------1/5\-|

Repeat: Verse 8x (1st 4x with overdrive/distortion effect)
        Verse Bridge
                       
Outro (All with overdrive/distortion effect)
G|-----------------|    |-----------------|
D|-----------------|    |-----------------| 
A|-----------------|8x  |-----------------|
E|-----------------|    |-----------------|
B|-1-0-0-1-0-0-0-0-|    |-2-2-2-2-2-2-2-2-|
G|--------------------------|
D|--------------------------|
A|--------------------------|  
E|--------------------------|4x  
B|-1-0--2-1--1-0--2-1--1--1-| 

Rest

G|----------------|    |----------------|
D|----------------|    |----------------|
A|----------------|7x  |----------------|
E|----------------|    |----------------|
B|-1-1-1-1-1-0----|    |-1-1-1-1--------|


            
            
Suggest correction
Creating personal tab
Creating personal tab
You can edit any tab online and save it as your Personal.

You can edit, replace or remove any tab part or add personal notes – all changes will be seen only by you.

Personal tabs can be accessed anytime from any device, even offline.
Learn more »
Give kudos to tab author, rate the tab!
1 2 3 4 5
comments
print report bad tab
guest
You may want to rate the tab now too:
select rating
Wanna post a correction for this tab? Suggest correction