Oops, an error
Loading. Please wait.

Peter And The Wolf tab

version 3
version 3

Whole song

Interactive

3,078 views 24 this week
2 commentsread comments
1 2 3 4 5
x 5
add to favorites
×
Save as Personal and add changes to this tab that will be seen only by you. Learn more ›
×
You can save this tab as Personal to edit and correct it or add notes. All changes will be seen only by you. Learn more »
launch autoscroll
font size
0
reset
how to read this tab
guitar tuner
edit
Autoscroll
slow
fast
+/-
esc
set tempo
stop
Author
Difficulty
Sorry, guys. The last person to tab this piece somehow managed to flip it all 
Here's the correct version. Enjoy~

(/) – Slide Down.
(x) – Play It Silently.


E ----------------------------------------------------------|
A ----------------------------------------------------------|
D -----------2--------2-4-5---------------------------------|
G -------2-5---5--2-5-------5-2-----1—-1/09-1—-1/09-1-1-2---|
B ----3-------------------------3-5-2—-2/10-2—-2/10-2-x-x---|
E -3--------------------------------------------------2-3---|

E ----------------------------------------------------------|
A ----------------------------------------------------------|
D -----------5--------5-7-8---------------------------------|
G -------5-8---8--5-8-------8-5-----4—-4/12-4—-4/12-4-4-5---|
B ----6-------------------------6-8-5—-5/13-5—-5/13-5-x-x---|
E -6--------------------------------------------------5-6---|

            
            
Suggest correction
Creating personal tab
Creating personal tab
You can edit any tab online and save it as your Personal.

You can edit, replace or remove any tab part or add personal notes – all changes will be seen only by you.

Personal tabs can be accessed anytime from any device, even offline.
Learn more »
comments
print report bad tab
2 comments total.
+1 reply
Megadethfan245 452 Nov 11, 2014 04:01 PM

It's bang on, but should specify that it's only Peter's theme.

0 reply
flojo.exw 67 Dec 17, 2014 11:03 AM

why so complicated?
play it like that:

e ----------------------------------------------------------|
b ------------------------1---------------------------------|
h ---------0-2-0----0-2-4---0-------------------------------|
D -------2--------2-----------2---0-1?-1/09-1?-1/09-1-1-2---|
A ----3-------------------------3---2?-2/10-2?-2/10-2-x-x---|
E -3--------------------------------------------------2-3---|

e ----------------------------------------------------------|
b -----------1--------1-3-4---------------------------------|
h -------0-3---3--0-3-------3-0-----------------------------|
D ----1-------------------------1-3-4?-4/12-4?-4/12-4-4-5---|
A -1--------------------------------5?-5/13-5?-5/13-5-x-x---|
E ----------------------------------------------------5-6---|

guest
You may want to rate the tab now too:
select rating
Wanna post a correction for this tab? Suggest correction