Oops, an error
Loading. Please wait.

Mas Que Nada bass

version 1
version 1

Whole song

  • There is no bass tab and this is correct.

Interactive

1,186 views 45 this week
no commentswrite comment
1 2 3 4 5
3 more votes to show rating
add to favorites
×
Save as Personal and add changes to this tab that will be seen only by you. Learn more ›
×
You can save this tab as Personal to edit and correct it or add notes. All changes will be seen only by you. Learn more »
launch autoscroll
font size
0
reset
guitar tuner
edit
Autoscroll
slow
fast
+/-
esc
set tempo
stop
Author
Difficulty
About this tab version
There is no bass tab and this is correct. Was this info helpful? Yes No
Tabber: Blameshift
Song: Mais Que Nada - Sergio Mendes & Brasil '66
Tuning: E-standard

This song starts with a piano upbeat.

[Intro] - x8         
G|---------------------|
D|--3--------3---------|
A|-----1-1------1-1----|
E|---------------------|

[Chorus]
G|---------------------------------------------------------------------------|
D|--3-------3------------------1---1-1---3--------3--------3-------3---------|
A|-----1-1-----3-2-1---1-1--1---------------1-1------1-1------1-1-----1-1----|
E|---------------------------------------------------------------------------|

G|---------------------------------------------------------------------------|
D|--3-------3------------------1---1-1---3--------3--------3-----------------|
A|-----1-1-----3-2-1---1-1--1---------------1-1------1-1------1-1------3~----|
E|---------------------------------------------------------------------------|

[Verse 1]
G|-------------------------------------------5-5------------------|
D|--3--------5--------3--------5---------3--------5-5-------------|
A|-----3-3------3-3------3-3------3-3------------------3-3--------|
E|----------------------------------------------------------------|

G|------------------------3-3--------3-3-----1--------1-1--------|
D|--3-------3-------------------1-1-------------1-1--------1-1---|
A|-----3-3-----3-3--2-1------------------------------------------|
E|---------------------------------------------------------------|

G|-----------------------------------(5~)------------------------|
D|-------------------------3-------------------------------------| Choose to play either 5th on the G string 
A|--5---5-5--5-4--4--3--------3-3----(3~)------------------------| or 3rd on the A string, which ever you like
E|---------------------------------------------------------------|

G|------------------------------------------5-5------------------|
D|--3--------5--------3--------5--------3--------5-5-------------|
A|-----3-3------3-3------3-3------3-3-----------------3-3--------|
E|---------------------------------------------------------------|

G|---------------------|
D|--3--------3---------|
A|-----3-3------3-3----|
E|---------------------|

[Chorus]
G|---------------------------------------------------------------------------|
D|--3-------3------------------1---1-1---3--------3--------3-------3---------|
A|-----1-1-----3-2-1---1-1--1---------------1-1------1-1------1-1-----1-1----|
E|---------------------------------------------------------------------------|

G|---------------------------------------------------------------------------|
D|--3-------3------------------1---1-1---3--------3--------3----------rest---|
A|-----1-1-----3-2-1---1-1--1---------------1-1------1-1------1-1------------|
E|---------------------------------------------------------------------------|

[Verse 2]
G|-----------5-----------------5--------------5-5-------------------|
D|--3-----------------3-------------------3--------5-5--------------|
A|-----3-3------3-3------3-3------3-3-------------------3-3---------|
E|------------------------------------------------------------------|

G|------------------------3-3--------3-3-----1--------1-1--------|
D|--3-------3-------------------1-1-------------1-1--------1-1---|
A|-----3-3-----3-3--2-1------------------------------------------|
E|---------------------------------------------------------------|

G|-----------------------------------(5~)------------------------|
D|-------------------------3-------------------------------------| 
A|--5---5-5--5-4--4--3--------3-3----(3~)------------------------|
E|---------------------------------------------------------------|

G|-----------5-----------------5--------------5-5-------------------|
D|--3-----------------3-------------------3--------5-5--------------|
A|-----3-3------3-3------3-3------3-3-------------------3-3---------|
E|------------------------------------------------------------------|

G|---------------------|
D|--3--------3---------|
A|-----3-3------3-3----|
E|---------------------|

[Chorus]
G|---------------------------------------------------------------------------|
D|--3-------3------------------1---1-1---3--------3--------3-------3---------|
A|-----1-1-----3-2-1---1-1--1---------------1-1------1-1------1-1-----1-1----|
E|---------------------------------------------------------------------------|
                                                                     
                                                                    PIANO SOLO
G|---------------------------------------------------------------------------|
D|--3-------3------------------1---1-1---3--------3--------3!--rest----------|
A|-----1-1-----3-2-1---1-1--1---------------1-1------1-1---------------------|
E|---------------------------------------------------------------------------|
                                                         .
G|---------------------------------------|
D|--3-------3-------3-------3------------| This just loops until the fade out ends, 
A|-----1-1-----1-1-----1-1------1-1------| you could add a little notes to spice things up here.
E|---------------------------------------|

  Tab legend
----------------
 ~  vibrato
 .  staccato

            
            
Suggest correction
Creating personal tab
Creating personal tab
You can edit any tab online and save it as your Personal.

You can edit, replace or remove any tab part or add personal notes – all changes will be seen only by you.

Personal tabs can be accessed anytime from any device, even offline.
Learn more »
Give kudos to tab author, rate the tab!
1 2 3 4 5
comments
print report bad tab
guest
You may want to rate the tab now too:
select rating
Wanna post a correction for this tab? Suggest correction