Oops, an error
Loading. Please wait.

Praise The Lord And Pass The Ammunition tab

version 1
version 1

Whole song

Interactive

6,306 views 1 this week
4 commentsread comments
1 2 3 4 5
x 7
add to favorites
×
Save as Personal and add changes to this tab that will be seen only by you. Learn more ›
×
You can save this tab as Personal to edit and correct it or add notes. All changes will be seen only by you. Learn more »
launch autoscroll
font size
0
reset
how to read this tab
guitar tuner
edit
Autoscroll
slow
fast
+/-
esc
set tempo
stop
Serj Tankian - Praise The Lord And Pass The Ammunition - Standard Tuning

Tabbed by: Starminn
E-Mail: Robr3rd@aol.com

Firstly, this is my first ever tab, and is done completely by ear, so if some parts seem
be off, please feel absolutely free to e-mail me at the above address for corrections
tips to help make this and future tabs better.

Also, Guitar 1 & 2 aren't actually a lead & rhythm part, but merely to show that the two
different, and how they compare.

NOTICE: This is a very trippy song with many artificial tones as well as real, so I am
doing the main parts. BECAUSE this song is trippy, it is extremely important to listen in
timing. Also, some parts may sound a bit odd, however play along with the song and it 
all be right, though there may be too many slides >.<

Enjoy! ^^


---------------------------> Intro <-------------------------------

 |-Guitar 1
 |(0:00)
e|-----------------------------------------------------------------|
B|-----------------------------------------------------------------|
G|-----------------------------------------------------------------|
D|-----------------------------------------------------------------|
A|-----------------------------------------------------------------|
E|--14\12--12\11--11--11/12--12----14\12--12/14--14/15--15/17--15--|
 |
 |-Guitar 2
 |(0:08)        (0:12)
e|--------------|-----------------|
B|--5h7p5---\4--|--5--5h7p5---\4--|
G|--------------|-----------------|
D|--------------|-----------------|
A|--------------|-----------------|
E|--------------|-----------------|


-------------------------> Breakdown <-----------------------------

 |-Guitar 1
 |(0:35)
e|-----------------------------------------------------------------|
B|-----------------------------------------------------------------|
G|-----------------------------------------------------------------|
D|-----------------------------------------------------------------|
A|-----------------------------------------------------------------|
E|--14\12--12\11--11--11/12--12----14\12--12/14--14/15--15/17--15--|
 |                                                                 |
 |-Guitar 2                                                        |
 |(0:35)                                                           |
e|-----------------------------------------------------------------|
B|-----------------------------------------------------------------|
G|-----------------------------------------------------------------|
D|-----------------------------------------------------------------|
A|-----------------------------------------------------------------|
E|--19-17-19-17-15-14--14/15--15-----19-17-19-17-15-19--19/20--19--|


------------------------> Pre-Chorus <-----------------------------

 |-Guitar 1
 |(0:45)
e|-----------------------------------------------------------------|
B|-----------------------------------------------------------------|
G|-----------------------------------------------------------------|
D|-----------------------------------------------------------------|
A|-----------------------------------------------------------------|
E|--14\12--12\11--11--11/12--12----14\12--12/14--14/15--15/17--15--|
 |                                                                 |
 |-Guitar 2                                                        |
 |(0:45)                                                           |
e|-----------------------------------------------------------------|
B|--5--5---5----------5--5---5------5--5---5-------------5--5---5--|
G|-----------------------------------------------------------------|
D|-----------------------------------------------------------------|
A|-----------------------------------------------------------------|
E|-----------------------------------------------------------------|


--------------------------> Chorus <-------------------------------

 |-Guitar 1 (Actually a simplified version of the bass part up the octave)
 |(1:02)
e|---------------------------------------|
B|---------------------------------------|
G|---------------------------------------|
D|---------------------------------------|
A|--0--0-4-7----0--0-4-7----0-0-4-7-8-7--|
E|---------------------------------------|

e|-----------------------------------------------------|
B|-----------------------------------------------------|
G|-----------------------------------------------------|
D|-----------------------------------------------------|
A|--0--0-4-7----0--0-4-7----0--0-4-7----0-0-0-0--------|
E|-----------------------------------------------2--0--|


 |-Guitar 1
 |(2:05)
e|---------------------------------------|
B|---------------------------------------|
G|---------------------------------------|
D|---------------------------------------|
A|--0--0-4-7----0--0-4-7----0-0-4-7-8-7--|
E|---------------------------------------|

e|-----------------------------------------------------|
B|-----------------------------------------------------|
G|-----------------------------------------------------|
D|-----------------------------------------------------|
A|--0--0-4-7----0--0-4-7----0--0-4-7----0-0-0-0--------|
E|-----------------------------------------------2--0--|
 |
 |-Guitar 2
 |(2:05)
e|-----------------------------------------------------------------|
B|--5--5---5----------5--5---5------5--5---5-------------5--5---5--|
G|-----------------------------------------------------------------|
D|-----------------------------------------------------------------|
A|-----------------------------------------------------------------|
E|-----------------------------------------------------------------|


 From about (2:15) until around (3:44) the song pretains mostly to singing, chaotic
effects, and piano.

Exceptions:
-(2:41) to (2:49)
-(2:50) to (2:59)

 |-Guitar 1
 |(2:41)
e|---------------------------------------|
B|---------------------------------------|
G|---------------------------------------|
D|---------------------------------------|
A|--0--0-4-7----0--0-4-7----0-0-4-7-8-7--|
E|---------------------------------------|

e|-----------------------------------------------------|
B|-----------------------------------------------------|
G|-----------------------------------------------------|
D|-----------------------------------------------------|
A|--0--0-4-7----0--0-4-7----0--0-4-7----0-0-0-0--------|
E|-----------------------------------------------2--0--|


 |-Guitar 1
 |(2:50)
e|-----------------------------------------------------------------|
B|-----------------------------------------------------------------|
G|-----------------------------------------------------------------|
D|-----------------------------------------------------------------|
A|-----------------------------------------------------------------|
E|--14\12--12\11--11--11/12--12----14\12--12/14--14/15--15/17--15--|


 |-Guitar 1
 |(3:44)
e|-----------------------------------------------------------------|
B|-----------------------------------------------------------------|
G|-----------------------------------------------------------------|
D|-----------------------------------------------------------------|
A|-----------------------------------------------------------------|
E|--14\12--12\11--11--11/12--12----14\12--12/14--14/15--15/17--15--|
 |
 |-Guitar 2
 |(3:44)
e|--------------|-----------------|
B|--5h7p5---\4--|--5--5h7p5---\4--|
G|--------------|-----------------|
D|--------------|-----------------|
A|--------------|-----------------|
E|--------------|-----------------|


--------------------> Outro <---------------------

 |-Guitar 1
 |(4:17)
e|--4-------------4-------------4-----------4-----|
B|--4--4-6-4-6----4--4-6-4-6----4--4-6-4-6--4-----|
G|------------------------------------------------|
D|---------------------------------------------6--|
A|------------------------------------------------|
E|------------------------------------------------|

Strenuously Whispered: "Yeah!"


And there it is! Probably one of the most wierd-awesome songs ever! And, again, please,
more than free to send me some constructive criticism!

            
            
Suggest correction
Creating personal tab
Creating personal tab
You can edit any tab online and save it as your Personal.

You can edit, replace or remove any tab part or add personal notes – all changes will be seen only by you.

Personal tabs can be accessed anytime from any device, even offline.
Learn more »
comments
print report bad tab
4 comments total. Showing first comments.
0 reply
Thegargoylevine 30 Jul 09, 2008 03:29 PM

Some duration notes would help a lot.

0 reply
aces high 63 10 Nov 10, 2008 11:58 AM

its ok, i mean theres not many out there that want this tab. but i was curious.good job anyways lol.

P.S. your good, but try a mor epopular song to tab if you want more fanfare lol

0 reply
Frusciante19 20 Sep 05, 2010 05:27 AM

this is a good tab, but i agree with aces high 63 - try a more popular song as your next tab - i mean this is a great song, but it's not so popular :D

guest
You may want to rate the tab now too:
select rating
Wanna post a correction for this tab? Suggest correction