Oops, an error
Loading. Please wait.
We have an official Sky Is Over tab made by UG professional guitarists. Check out the tab »
×
1,515 views 1 this week
1 commentread comment
1 2 3 4 5
2 more votes to show rating
add to favorites
×
Save as Personal and add changes to this tab that will be seen only by you. Learn more ›
×
You can save this tab as Personal to edit and correct it or add notes. All changes will be seen only by you. Learn more »
launch autoscroll
font size
0
reset
guitar tuner
edit
Autoscroll
slow
fast
+/-
esc
set tempo
stop
Author
Serj Tankian
Sky Is Over

Done By Ear


Piano Intro
E------------------------------------4--------1--------------|
A----3---------3---------------------------------------------|
D------------------------5-----------------------------------|
G------------------------------------------------------------|
 no 1 on first
take out 2nd 3 after first time


[Verse 1]

E---------------------------------4-------1-------------------|
A------3----------3-------------------------------------------|
D------------------------5------------------------------------|
G-------------------------------------------------------------|


[Pre-Chorus]
E------------------------------------5555--6666-----------------|
A-----2----------3------------2---------------------------------|
D---------------------------------------------------------------|
G---------------------------------------------------------------|


[Chorus]
E--------3333-3333----6-6--5-5------------------------------------|
A-----------------------------------------------------------------|  x4
D-----------------------------------------------------------------|
G-----------------------------------------------------------------|


[Verse 2] Same as verse 1

prechorous  x1

Bridge
E------3--------3-------3-------3----------------------3------3---|
A---------------------------------------1------1------------------|
D-----------------------------------------------------------------|
G-----------------------------------------------------------------|

E---3---000000----3---000000----3---000000------3---000000--------|
A-----------------------------------------------------------------|
D-----------------------------------------------------------------|
G-----------------------------------------------------------------|


E-----------------------------3--000000----3--000000--------------|
A-1--000000----1--000000------------------------------------------|
D-----------------------------------------------------------------|
G-----------------------------------------------------------------|


E--------------3--0000----3--0000---------------------------------|
A------2222-------------------------------------------------------|  x3
D-----------------------------------------------------------------|
G-----------------------------------------------------------------|

E-------------5555----6666----------------------------------------|
A-----------------------------------------------------------------|
D-----------------------------------------------------------------|
G-----------------------------------------------------------------|

pause
E--------------55---66--------------------------------------------|
A-----------------------------------------------------------------|
D-----------------------------------------------------------------|
G-----------------------------------------------------------------|


Then Chorus till end

wasnt bass tab on here so i decided too put one not 100% but sounds good enough

Lyrics

[Verse1]
Everybody Knows
Everybody Knows
That you cradle the sun
Living in remorse, sky is over

[Pre-Chorus]
Dont you want to hold me,baby?
Disappointed, going crazy

[Chorus]
Even though we cant afford
The sky is over
Even though we cant afford
The sky is over

[Verse 2]
Behind closed eyes lie
The mind's ready to awaken you
Are you at war with land
And all of its creatures?
You're not so gentle
Persuation has been known
To wreck economies of countries, of empires
The sky is over

[Pre-Chorus]
Dont you want to hold me' baby?
Disappointed, going crazy

[Bridge]
La la la la la la x8


Not even from the sun x3
Dont you want me to run?


[Outro]
Even thought we can't afford
The sky is over
Even though we can't afford
The sky is over

I dont wanna see you go
The sky is over
Even though we can't afford
The sky is over

I don't wanna see you go
The sky is over
Even though we can't afford
The sky is over, SKYis over uss

ENJOY

Comment any questions or anything general about the tab

            
            
Suggest correction
Creating personal tab
Creating personal tab
You can edit any tab online and save it as your Personal.

You can edit, replace or remove any tab part or add personal notes – all changes will be seen only by you.

Personal tabs can be accessed anytime from any device, even offline.
Learn more »
Give kudos to tab author, rate the tab!
1 2 3 4 5
comments
print report bad tab
1 comment total.
0 reply
GabrielAD 10 Feb 16, 2011 07:19 PM

theyre good tabs but u did it upside down its supposed to be like

are you a lefty bro

guest
You may want to rate the tab now too:
select rating
Wanna post a correction for this tab? Suggest correction