Oops, an error
Loading. Please wait.
We have an official Sky Is Over tab made by UG professional guitarists. Check out the tab »
×
74,653 views 90 this week
no commentswrite comment
1 2 3 4 5
x 12
add to favorites
×
Save as Personal and add changes to this tab that will be seen only by you. Learn more ›
×
You can save this tab as Personal to edit and correct it or add notes. All changes will be seen only by you. Learn more »
launch autoscroll
font size
0
reset
transpose
0
reset
display chords
guitar tuner
edit
Autoscroll
slow
fast
+/-
esc
set tempo
stop
Author
Strumming
There is no strumming pattern for this song yet. and get +5 IQ
So, I've learned how to play this song on piano and next I started to
experiment with classical guitar sounds (standard tuning). 
Finally I've made this...I hope it's correct.
This is my own (and first) cover, so some chords may be false. 
I hope, you'll like it, enjoy!

Chords needed:

      Cm                  Fm (ver1)
   3   4   5   6       3   4   5   6        8   9  10  11
E|-0-|---|---|---|   |---|-0-|---|---|    |-0-|---|---|---|
B|---|-0-|---|---|   |---|---|---|-0-|    |---|-0-|---|---|
G|---|---|-0-|---|   |---|---|-0-|---|(or)|---|---|-0-|---|
D|---|---|-0-|---|   |-0-|---|---|---|    |---|---|-0-|---|
A|-0-|---|---|---|   |-0-|---|---|---|    |-0-|---|---|---|
E|-0-|---|---|---|   |-x-|---|---|---|    |-x-|---|---|---|

       Ab                 Fm (ver2)           Bb
   4   5   6   7       1   2   3   4       1   2   3   5
E|-0-|---|---|---|   |-0-|---|---|---|   |-0-|---|---|---|
B|-0-|---|---|---|   |-0-|---|---|---|   |---|---|-0-|---|
G|---|-0-|---|---|   |-0-|---|---|---|   |---|---|-0-|---|
D|---|---|-0-|---|   |---|---|-0-|---|   |---|---|-0-|---|
A|---|---|-0-|---|   |---|---|-0-|---|   |-0-|---|---|---|
E|-0-|---|---|---|   |-0-|---|---|---|   |-0-|---|---|---|

      Gm                  Eb
   3   4   5   6       5   6   7   8        3   4   5   6
E|-0-|---|---|---|   |---|-0-|---|---|    |-0-|---|---|---|
B|-0-|---|---|---|   |---|---|---|-0-|    |---|-0-|---|---|
G|-0-|---|---|---|   |---|---|---|-0-|(or)|-0-|---|---|---|
D|---|---|-0-|---|   |---|---|---|-0-|    |---|---|-0-|---|
A|---|---|-0-|---|   |---|-0-|---|---|    |---|---|---|-0-|
E|-0-|---|---|---|   |---|-0-|---|---|    |-x-|---|---|---|

      D
   5   6   7   8        2   3   4   5        2   3   4   5
E|-0-|---|---|---|    |-0-|---|---|---|    |-0-|---|---|---|
B|---|---|-0-|---|    |---|-0-|---|---|    |---|-0-|---|---|
G|---|---|-0-|---|(or)|-0-|---|---|---|(or)|-0-|---|---|---|
D|---|---|-0-|---|    |---|---|-0-|---|    |---|---|---|---|
A|-0-|---|---|---|    |---|---|---|-0-|    |-x-|---|---|---|
E|-0-|---|---|---|    |-0-|---|---|---|    |-x-|---|---|---|


[Intro]
  
E|------------------------------------44444-3------|
B|-----44444-3---------44444-3----------------6----|
G|-------------5---------------5----------------5--|     }x2
D|---------------5---------------5-3---------------|
A|--3---------------3------------------------------|
E|-------------------------------------------------|

E|-------------------|
B|------4-------1----|
G|------5-------1----|
D|------6-------3----|
A|----6---6---3---3--|
E|--4-------1--------|

[Verse 1]

Cm                           Fm(ver1)   
  Everybody knows, everybody knows
Ab         Fm(ver2)   Cm
  That you cradle the sun, sun
                Fm(ver1)
  Living in remorse,
  Ab     Fm(ver2)
  Sky is over

  Bb                Cm
  Don't you want to hold me baby?
                e|-------------------|
                B|-------------------|
                G|-------------------|
                D|-------------------|
                A|--6-6-6-6-5-5-5-5--|
  Bb            E|--6-6-6-6-5-5-5-5--|      
  Disappointed...   going   crazy...

[Chorus]

  Gm
  Even though we can't afford
      Eb     D
  The sky is over
  Gm
  Even though we can't afford
      Eb     D
  The sky is over
  Gm
  I don’t want to see you go
      Eb     D
  The sky is over
  Gm
  Even though we can't afford
      Eb     D
  The sky is over

[Verse 2]

Cm
  Behind closes eyes lie
  The minds ready to awaken you,
Fm(ver1)
  Are you at war with land
      Ab         Fm(ver2)
  And all of its creatures,
Cm
  Your not-so-gentle persuasion
  Has been known to wreck economies
     Fm(ver1)                   Ab     Fm(ver2)
  Of countries, of empires, the sky is over,

  Bb                Cm
  Don't you want to hold me baby?
                e|-------------------|
                B|-------------------|
                G|-------------------|
                D|-------------------|
                A|--6-6-6-6-5-5-5-5--|
  Bb            E|--6-6-6-6-5-5-5-5--|      
  Disappointed...   going   crazy...

[Piano section]:
[this is a fast piano solo difficult to play on guitar, so just use chords: Cm, Fm(ver1)]

Bb                  Cm
  Not even from the sun,
Bb                  Cm
  Not even from the sun,
Bb                  Cm
  Not even from the sun,
                       e|-------------------|
                       B|-------------------|
                       G|-------------------|
                       D|-------------------|
                       A|--6-6-6-6-5-5-5-5--|
  Bb                   E|--6-6-6-6-5-5-5-5--|
  Don’t you want me to     run?

[Chorus]
e|-------------------|
B|-------------------|
G|-------------------|
E|--6-5-6---6-5-6----|
B|--------8-------8--|
G|-------------------|
  Even though we can't afford
    Eb     D
  The sky is over
  Gm
  Even though we can't afford
      Eb     D
  The sky is over
  Gm
  I don’t want to see you go
      Eb     D
  The sky is over
  Gm
  Even though we can't afford
      Eb     D
  The sky is over
  Gm
  I don’t want to see you go
      Eb     D
  The sky is over
  Gm
  Even though we can't afford
      Eb     D
  The sky is over
  Gm
  I don’t want to see you go
      Eb     D
  The sky is over
  Gm
  Even though we can't afford
      Eb     D
  The sky is over
  Eb     D       Gm
  Sky is over us.



************************************

| x  Dead note

************************************

            
            
Suggest correction
Creating personal tab
Creating personal tab
You can edit any tab online and save it as your Personal.

You can edit, replace or remove any tab part or add personal notes – all changes will be seen only by you.

Personal tabs can be accessed anytime from any device, even offline.
Learn more »
comments
print report bad tab
guest
You may want to rate the tab now too:
select rating
Wanna post a correction for this tab? Suggest correction