Oops, an error
Loading. Please wait.

An Old Book Misread bass

1,427 views 3 this week
no commentswrite comment
1 2 3 4 5
3 more votes to show rating
add to favorites
×
Save as Personal and add changes to this tab that will be seen only by you. Learn more ›
×
You can save this tab as Personal to edit and correct it or add notes. All changes will be seen only by you. Learn more »
launch autoscroll
font size
0
reset
guitar tuner
edit
Autoscroll
slow
fast
+/-
esc
set tempo
stop
Set Your Goals - An Old Book Misread
Bass Tab

Tuning: Half-Step Down Eb, Ab, Db, Gb
Tune all strings down 1 fret.


Intro
Gb|----------------------------------------------------|
Db|--------------------22------------------------------|
Ab|----222442244----444--4422----22442244--------------|x2
Eb|-444----------000----------444--------000000000000--|

Verse

Gb|----------------------------------------------------|
Db|----------------------------------------------------|
Ab|--------------22-2-2--------------------------------|x3
Eb|-00-0-04-4-4--------2-2-4--00-0-04-4-4-22-2-22-4-2--|

Gb|----------------------------------------------------|
Db|----------------------------------------------------|
Ab|--------------22-2-2--------------------------------|
Eb|-00-0-04-4-4--------2-2-4--440-0-00-0-0-00-0-00-0---|

Chorus

Gb|-----------------------------------------------------------------|
Db|-----------------------------------------------------------------|>>
Ab|-22222222------------22222222------------------------------------|>>
Eb|---------00000-0-2-0---------000000-0-2-0-44444444-0000000-0-2-0-|

Gb|-----------------|
Db|-----------------|
Ab|-44444444--------|
Eb|---------2222222-|

Intro x1

Break
Verse x1

"i refused to be..."           "organized crime....."
Gb|---------------------------|-------------------------------------------|
Db|---------------------------|-------------------------------------------|
Ab|---------------------------|-------2-2-2-------------------------------|
Eb|-222244-------------222244-|-44-4-4-----22-2-2-40-00-0-00-0-0-00-0-0-0-|

Chorus x1
Intro x2

Interlude

Gb|----------------------------|--------------------|---------------------|
Db|----------------------------|--------------------|---------------------|
Ab|----------22-----------22---|--22----------22-44-|---22-----------22---|
Eb|-00-----44---20-0-0--44--20-|44---20-0-0-44------|-44---20-0-0--44--20-|

"in 83 a lamb was lead......."
Gb|----------------------------------------------------------|
Db|----------------------------------------------------------|
Ab|-------------------------------------------0-222222444444-| x1.5
Eb|-444444-000000-2-44444420000-444444-000000----------------|

Gb|---------------------|
Db|---------------------|
Ab|---22----------------|
Eb|-44---20-0-2-4x-2x-0-|

Break

"some thing that you do..."
Pre-Chorus
Gb|----------------------------------------------|
Db|----------------------------------------------|
Ab|--------------------------2222222222----------|
Eb|-2-0-4------00-0-0-000000-----------000000000-|

Chorus x1

Outro
Gb|------------------------------------------------|
Db|--------------------22--------------------------|
Ab|----222442244----444--4422----222442244---------|
Eb|-444----------000----------444----------44x22x0-|


            
            
Suggest correction
Creating personal tab
Creating personal tab
You can edit any tab online and save it as your Personal.

You can edit, replace or remove any tab part or add personal notes – all changes will be seen only by you.

Personal tabs can be accessed anytime from any device, even offline.
Learn more »
Give kudos to tab author, rate the tab!
1 2 3 4 5
comments
print report bad tab
guest
You may want to rate the tab now too:
select rating
Wanna post a correction for this tab? Suggest correction