Oops, an error
Loading. Please wait.

How Bout No Scott tab

89 views 1 this week
no commentswrite comment
1 2 3 4 5
3 more votes to show rating
add to favorites
×
Save as Personal and add changes to this tab that will be seen only by you. Learn more ›
×
You can save this tab as Personal to edit and correct it or add notes. All changes will be seen only by you. Learn more »
launch autoscroll
font size
0
reset
how to read this tab
guitar tuner
edit
Autoscroll
slow
fast
+/-
esc
set tempo
stop
Intro
e--------------------------------------------------------------------|
B--------------------------------------------------------------------|
G--8-8-8----5-5-6----------------------------------------------------|
D--8-8-8----5-5-6----6(let ring)-6-----------------------------------|
A--6-6-6----3-3-4----6-----------6-----------------------------------|
E--------------------4-----------4-----------------------------------|

First section:
e--------------------------------------------------------------------|
B--------------------------------------------------------------------|
G---5------6---------------------------------------------------------|
D---5------6-------6-------------------------------------------------|
A---3------4-------6-------------------------------------------------|
E------------------4-------------------------------------------------|
    I can see your disapproval
e--------------------------------------------------------------------|
B--------------------------------------------------------------------|
G---5------------6---------------------------------------------------|
D---5------------6----------6----------------------------------------|
A---3------------4----------6----------------------------------------|
E---------------------------4----------------------------------------|
When I see the look on your face
e--------------------------------------------------------------------|
B--------------------------------------------------------------------|
G----5-------6-------------------------------------------------------|
D----5-------6------6------------------------------------------------|
A----3-------4------6------------------------------------------------|
E-------------------4------------------------------------------------|
But this is what I live each day for
e--------------------------------------------------------------------|
B--------------------------------------------------------------------|
G---8----8---8-----5--5--6-------------------------------------------|
D---8----8---8-----5--5--6-------------------------------------------|
A---6----6---6-----3--3--4-------------------------------------------|
E--------------------------------------------------------------------|
   Won’t go back! Had enough!
(repeat first section)
Slow section:
e--------------------------------------------------------------------|
B--------------------------------------------------------------------|
G-------------8--------6---------------------------------------------|
D----6--------8--------6---------------------------------------------|
A----6--------6--------4---------------------------------------------|
E----4---------------------------------------------------------------|
(G#5 played for eight counts, D#5 for eight counts and C#5 for 16 counts)

G#5
I just can’t fail forever
D#5
Someday I will set it straight
C#5
Taking chances to make things happen for myself
C#5
No one else but me

(etc....)

And the outro is the intro.

In case tab is confusing, I’ll just list the chords here.

Intro:          D#5 D#5 D#5
                C5 C5 C#5
                G#5
First section:
                C5 C#5 G#5
Slow section:
                G#5 D#5 C#5 C#5

            
            
Suggest correction
Creating personal tab
Creating personal tab
You can edit any tab online and save it as your Personal.

You can edit, replace or remove any tab part or add personal notes – all changes will be seen only by you.

Personal tabs can be accessed anytime from any device, even offline.
Learn more »
Give kudos to tab author, rate the tab!
1 2 3 4 5
comments
print report bad tab
guest
You may want to rate the tab now too:
select rating
Wanna post a correction for this tab? Suggest correction