Oops, an error
Loading. Please wait.

Headstrong bass

636 views 3 this week
no commentswrite comment
1 2 3 4 5
2 more votes to show rating
add to favorites
×
Save as Personal and add changes to this tab that will be seen only by you. Learn more ›
×
You can save this tab as Personal to edit and correct it or add notes. All changes will be seen only by you. Learn more »
launch autoscroll
font size
0
reset
guitar tuner
edit
Autoscroll
slow
fast
+/-
esc
set tempo
stop
Hi, I'm Drew. This is my first 7m3 song being tabbed. 
I will try to tab every song that doesnt have a bass tab off the album American Standard. 
It took me about a week to tab out this song. Please rate.

Intro 1/Verse
----------------------------|
G|9~------11~-11/9|         | do both once in Intro
D|----------------|         |
A|----------------|         |
E|----------------|         |do both in Verse three times
                            |
G|9~---7--9-77-999|         |
D|----------------|         |
A|----------------|         |
E|----------------|         |
----------------------------|

Intro 2A

G|99999999-11-9-7-11-9-7-11-9/|
D|----------------------------|     x4
A|----------------------------|
E|----------------------------|


Intro 2B/Chorus
G|---------------------------|
D|99999999-11-9-7-11-9-7-11-9|      x4
A|---------------------------|
E|---------------------------|


Break

A|3---3---3---3| x1

Intro 2A x2

Verse x3


Chorusx8

Bridge 1
G|-------------------------------------|
D|-------------------------------------|   x1
A|3---3---2---2---1---1---0---0---0---0|
E|-------------------------------------|

Bridge 2
--------------------------|
G|-------------|          |
D|-------------|   x3     |  do all of this three times
A|33-333-333-33|          |
E|-------------|          |
                          |
A|3-22-11-00-000-000-00|x1|
                          |
--------------------------|                    

Bass Break same as Intro 2A x5

Verse x4

break hold A|3~| x1

Chorus
---------------------------|
G|---------------| x7      |
D|--0-3-3---5h7p5|         |   do all x3
A|-0-------------|         |   last time do second part twice
E|0--------------|         |   
                           |
G|----------7h9p7|         |
D|--0-3-3--------| x1      |
A|-0-------------|         |
E|0--------------|         |
---------------------------|






            
            
Suggest correction
Creating personal tab
Creating personal tab
You can edit any tab online and save it as your Personal.

You can edit, replace or remove any tab part or add personal notes – all changes will be seen only by you.

Personal tabs can be accessed anytime from any device, even offline.
Learn more »
Give kudos to tab author, rate the tab!
1 2 3 4 5
comments
print report bad tab
guest
Wanna post a correction for this tab? Suggest correction