Oops, an error
Loading. Please wait.

Death Dance tab

1,234 views 6 this week
3 commentsread comments
1 2 3 4 5
x 6
add to favorites
×
Save as Personal and add changes to this tab that will be seen only by you. Learn more ›
×
You can save this tab as Personal to edit and correct it or add notes. All changes will be seen only by you. Learn more »
launch autoscroll
font size
0
reset
how to read this tab
guitar tuner
edit
Autoscroll
slow
fast
+/-
esc
set tempo
stop
Sevendust: Death Dance

Transcribed by: mysticguitar77

Facebook: https://www.facebook.com/MysticGuitar77
YouTube Channel: https://www.youtube.com/user/MysticGuitar77

Date last modified: October 1, 2015

Tuning: Modified Drop A# (G,F,A#,D#,G,C) *6th string dropped to G from A# normally

Riff 1
 C|----------------------0---0-----|
 G|--------------------0---------0-|
D#|--------------------------------|
A#|--------------------------------| x3
 F|--------------------------------|
 G|-0-12b-10-12-12-0-1-----3---1---|

 C|----------------------0----------|
 G|--------------------0-----0------|
D#|---------------------------------|
A#|---------------------------------|
 F|---------------------------------|
 G|-0-12b-10-12-12-0-1-----3---/8-8-|

Riff 2   "Plastic scars..."
 C|------------------------------------------------------------------------|
 G|----------------------------------------------------------------------0-|
D#|------------------------------------------------------------------------|
A#|--------------------------------------------------------------------7---|
 F|------------12\---------------------------------------------------------|
 G|-0--0--0--0-10\--0-0--12-10-0-12-10-0-12-10-0--0--0--0-1b--0-0--0-0-----|
                         *  *  * *  *  * *  *  

 C|--------------------------------------------------------------------|
 G|--------------------------------------------------------------------|
D#|---------12---12---------11-9\8---------9-9/11-11/12-12/14-14\12-12-|
A#|---------x----x----------x--x-x---------x-x-x--x--x--x--x--x--x--x--|
 F|---------10---10---------9--7\6---------7-7/9--9//10-10/12-12\10-10-|
 G|-0--0--0----0----0--0--0--------0--0--0-----------------------------|

Riff 3   "You couldn't last so long..."
 C|--------------------------------|
 G|----------------------0---0-----|
D#|--------------------------------|
A#|--------------------2---------2-| x3
 F|--------------------------------|
 G|-0-12b-10-12-12-0-1-----3---1---|

 C|---------------------------------|
 G|----------------------0---0------|
D#|---------------------------------|
A#|--------------------2------------|
 F|---------------------------------|
 G|-0-12b-10-12-12-0-1-----3---/8-8-|

Riff 4   "So reach down far below..."
 C|-----------------------------------------------------------------------|
 G|-----------------------------------------------------------------------|
D#|-----------------------------------------------------------------------|
A#|-----------------------------------------------------------------------|
 F|-10-10-10-7-7-7-7-2-2-2-2-5-5-5-5-5-10-10-10-7-7-7-7-2-2-2-2-9-9-9-9-9-|
 G|-8--8--8--5-5-5-5-0-0-0-0-3-3-3-3-3-8--8--8--5-5-5-5-0-0-0-0-7-7-7-7-7-|

 C|--------------------------------------------------------------------|
 G|--------------------------------------------------------------------|
D#|--------------------------------------------------------------------|
A#|--------------------------------------------------------------------|
 F|-10-10-10-7-7-7-7-2-2-2-2-5-5-5-5-5-4-4-4-4-4-4-4-4-4-5-5-5-5-7-5---|
 G|-8--8--8--5-5-5-5-0-0-0-0-3-3-3-3-3-2-2-2-2-2-2-2-2-2-3-3-3-3-5-3-0-|

Fill 1
 C|-------------------------------------------------------------------|
 G|----------------------0---0--------------------------0-------------|
D#|-------------------------------------------------------------------|
A#|--------------------2---------2--------------------2---------------|
 F|-------------------------------------------------------------------|
 G|-0-12b-10-12-12-0-1-----3---1---0-12b-10-12-12-0-1-----3-1-1-1-1-1-|
                                                            * * * *

Play Riff 2 x1   "Constant thoughts..."
Play Riff 3 x1   "You're choking on the dirt..."
Play Riff 4 x2   "So reach down far below..."

Fill 2   "I'm gonna dance with the dead..."
 C|----------12----12----12----14----0--0--0--0--0-----------12----12----12----14----0--0--0---0---0---|
 G|-15-15-15----15----15----15----15-14-14-14-12-12-15-15-15----15----15----15----15-11-11-11b-11b-11b-|
D#|----------------------------------------------------------------------------------------------------|
A#|----------------------------------------------------------------------------------------------------|
 F|----------------------------------------------------------------------------------------------------|
 G|----------------------------------------------------------------------------------------------------|

Riff 5 
 C|----------------------------------------------------------------------------------------------------------|
 G|----------------------------------------------------------------------------------------------------------|
D#|---12\---------11h12---12\---12p11----11---12\---------11h12-------14-12-11-12-11----11-------------------|
A#|---11\---12h14---------11\---------14------11\---12h14-------12-11----------------14----14-11-12-11-12----|
 F|-------------------------------------------------------------------------------------------------------14-|
 G|-0-----0-------------0-----0-------------0-----0----------------------------------------------------------|
    *     *             *     *             *     *             *  *

 C|---------------------------------------------------------------------------14b15-14~-|
 G|--------------------------------------------------------------------10--12-----------|
D#|---12\---------11h12---12\---12p11----11---12\---------11h12-------------------------|
A#|---11\---12h14---------11\---------14------11\---12h14-------11--12------------------|
 F|-------------------------------------------------------------------------------------|
 G|-0-----0-------------0-----0-------------0-----0-------------------------------------|
    *     *             *     *             *     *

Play Riff 4 x2   "So reach down far below..."
Play Riff 1 x1   "I'm gonna dance with the dead!!"

Enjoy!!



            
            
Suggest correction
Creating personal tab
Creating personal tab
You can edit any tab online and save it as your Personal.

You can edit, replace or remove any tab part or add personal notes – all changes will be seen only by you.

Personal tabs can be accessed anytime from any device, even offline.
Learn more »
comments
print report bad tab
3 comments total.
+2 reply
zreavis_4 10 Oct 05, 2015 11:08 AM

Awesome Tab! As always!

+1 reply
mysticguitar77 6,026 Oct 05, 2015 11:07 PM

Thanks!!!!!!

+2 reply
Nola111 31 Oct 06, 2015 06:27 AM

Badass!!

(f**king Ultimate Guitar and their "your comment is too short" BS!!)

guest
You may want to rate the tab now too:
select rating
Wanna post a correction for this tab? Suggest correction