Oops, an error
Loading. Please wait.

Gone tab

version 1
version 1

Whole song

1,293 views 1 this week
no commentswrite comment
1 2 3 4 5
2 more votes to show rating
add to favorites
×
Save as Personal and add changes to this tab that will be seen only by you. Learn more ›
×
You can save this tab as Personal to edit and correct it or add notes. All changes will be seen only by you. Learn more »
launch autoscroll
font size
0
reset
how to read this tab
guitar tuner
edit
Autoscroll
slow
fast
+/-
esc
set tempo
stop
Sevendust - Gone
Drop D Tuning


Intro
e|------------------------------------------------|
B|------------------------------------------------|
G|------------------------------------------------|
D|-3p2-2-2-0-2--0-2-0-----------------------------|
A|-3p2-2-2-0-2--0-2-0-----------------------------|
D|-3p2-2-2-0-2--0-2-0-----------------------------|
               . . .

Verse
e|-4-4-4-4-4-4-4-4-4-4----------------------------|
B|------------------------------------------------|
G|------------------------------------------------| Listen to song for exact
D|------------------------------------------------| Amount of times this is played
A|------------------------------------------------|
D|------------------------------------------------|
  . . . . . . . . . .

Filler
e|------------------------------------------------|
B|------------------------------------------------|
G|------------------------------------------------|
D|-3p2-2-2-0-2--0-2-0-----------------------------|
A|-3p2-2-2-0-2--0-2-0-----------------------------|
D|-3p2-2-2-0-2--0-2-0-----------------------------|
               . . .

Chorus
e|------------------------------------------------|
B|------------------------------------------------|
G|-4-7-9-12-4-7-9-9-------------------------------|Each chord played 8x
D|-2-5-7-12-2-5-7-7-------------------------------|
A|-2-5-7-12-2-5-7-7-------------------------------|
D|-2-5-7-10-2-5-7-7-------------------------------|

Solo thing
e|-2-3-5--3-5-6-5-3--3-5-6-8-5--3-5-6-5-3---------|
B|-----------------------------------------3------|
G|-----------------------------------------2------|
D|------------------------------------------------|
A|------------------------------------------------|
D|------------------------------------------------|

Bridge (Clean)
e|------------------------------------------------|
B|------------------------------------------------|
G|-4-7-9-12-4-7-9-9-------------------------------|
D|-x-x-x--x-x-x-x-x-------------------------------|
A|-2-5-7-10-2-5-7-7-------------------------------|
D|------------------------------------------------|

After bridge chorus is played and then the solo part is added in with the chorus.
Outro is the same thing as intro.

            
            
Suggest correction
Creating personal tab
Creating personal tab
You can edit any tab online and save it as your Personal.

You can edit, replace or remove any tab part or add personal notes – all changes will be seen only by you.

Personal tabs can be accessed anytime from any device, even offline.
Learn more »
Give kudos to tab author, rate the tab!
1 2 3 4 5
comments
print report bad tab
guest
You may want to rate the tab now too:
select rating
Wanna post a correction for this tab? Suggest correction