Oops, an error
Loading. Please wait.

Prodigal Son bass

version 1
version 1

Whole song

Interactive

997 views 1 this week
no commentswrite comment
1 2 3 4 5
1 last vote to show rating
add to favorites
×
Save as Personal and add changes to this tab that will be seen only by you. Learn more ›
×
You can save this tab as Personal to edit and correct it or add notes. All changes will be seen only by you. Learn more »
launch autoscroll
font size
0
reset
guitar tuner
edit
Autoscroll
slow
fast
+/-
esc
set tempo
stop
Author
Band: Sevendust
Song: Prodigal Son
                TRANSCRIBED BY ISAIAS GARCIA (TexasFury)   




      S S E  S S S S S S S S Q       S S E  S S S S S S S S Q     
G#||------------------------------|------------------------------|
E ||------------------------------|------------------------------|
B ||--2--------------2------------|--2--------------2------------|
F#||------------------------------|------------------------------|
B ||----2-0--2-0-2-0---2-0-0-2----|----2-0--2-0-2-0---2-0-0-2----|


  S S E  S S S S S S S S Q       S S E  S S S S S S S S S S S S  
------------------------------|---------------------------------|
------------------------------|---------------------------------|
--2--------------2------------|--2--------------2---------------|
------------------------------|---------------------------------|
----2-0--2-0-2-0---2-0-0-2----|----2-0--2-0-2-0---0-0-0-0-0-0-0-|


  Q    Q    E  S  S Q       Q    S S S S S S S S S S S S  
-------------------------|-------------------------------|
-------------------------|-------------------------------|
-------------------------|-------------------------------|
--------------------5----|-------5-5-5-5-5-5-5-5-7-5-0-5-|
--0----2-------0h-2------|-------------------------------|


  Q    Q    E  S  S S S S S    Q    S E  S S E  S S S S S  
----------------------------|-----------------------------|
----------------------------|-----------------------------|
----------------------------|-----------------------------|
--------------------5-------|-----------------------------|
--0----2-------0h-2---0-0-0-|-------0-0--0---0--0-0-0-0-0-|


  Q    Q    E  S  S Q       Q    S S S S S S S S S S S S  
-------------------------|-------------------------------|
-------------------------|-------------------------------|
-------------------------|-------------------------------|
--------------------5----|-------5-5-5-5-5-5-5-5-7-5-0-5-|
--0----2-------0h-2------|-------------------------------|


  Q    Q    E  S  S S S S S    Q    S S S S S S S S S S S S  
----------------------------|-------------------------------|
----------------------------|-------------------------------|
----------------------------|-------------------------------|
--------------------5-------|-------------------------------|
--0----2-------0h-2---0-0-0-|-------0-0---0---0---0-0-0-0-0-|


   S S S S S S S S S S S S Q       W                 
--------------------------------|-------------------|
--------------------------------|-------------------|
--------------------------------|-------------------|
--------------------------------|-------------------|
--10-6-0-5-0-6-0-5-0-6-0-5-3----|-------------------|


   S S S S S S S S S S S S Q       W                 
--------------------------------|-------------------|
--------------------------------|-------------------|
--------------------------------|-------------------|
--------------------------------|-------------------|
--10-6-0-5-0-6-0-5-0-6-0-5-8----|-------------------|


  E.  S E  S S E   E  S S S S    E.  S E.  S S S S S S S E   
------------------------------|-----------------------------|
------------------------------|-----------------------------|
------------------------------|-----------------------------|
------------------------------|-----------------------------|
--3---3-3--3-3-3/--9--9-9-9-9-|--8---8-8---8-8-5-5-5-5-5-5--|


  E.  S E  S S E   E  S S S S    E  S S E  S S S S S S S S S S  
------------------------------|--------------------------------|
------------------------------|--------------------------------|
------------------------------|--------------------------------|
------------------------------|--------------------------------|
--3---3-3--3-3-3/--9--9-9-9-9-|--8--8-8-8--8-8-8-8-8-8-8-8-8-1-|


  E.  S E  S S E   E  S S S S    E.  S E.  S S S S S S S E   
------------------------------|-----------------------------|
------------------------------|-----------------------------|
------------------------------|-----------------------------|
------------------------------|-----------------------------|
--3---3-3--3-3-3/--9--9-9-9-9-|--8---8-8---8-8-5-5-5-5-5-5--|


  E.  S E  S S E   E  S S S S    E.  S E.  S  S S S S S S S S  
------------------------------|-------------------------------|
------------------------------|-------------------------------|
------------------------------|-------------------------------|
------------------------------|-------------------------------|
--3---3-3--3-3-3/--9--9-9-9-9-|--8---8-8---8-10-6-0-5-0-6-5-0-|


  S S E  S S S S S S S S Q       S S E  S S S S S S S S Q     
------------------------------|------------------------------|
------------------------------|------------------------------|
--2--------------2------------|--2--------------2------------|
------------------------------|------------------------------|
----2-0--2-0-2-0---2-0-0-2----|----2-0--2-0-2-0---2-0-0-2----|


  S S E  S S S S S S S S Q       S S E  S S S S S S S S S S S S  
------------------------------|---------------------------------|
------------------------------|---------------------------------|
--2--------------2------------|--2--------------2---------------|
------------------------------|---------------------------------|
----2-0--2-0-2-0---2-0-0-2----|----2-0--2-0-2-0---0-0-0-0-0-0-0-|


  Q    Q    E  S  S Q       Q    S S S S S S S S S S S S  
-------------------------|-------------------------------|
-------------------------|-------------------------------|
-------------------------|-------------------------------|
--------------------5----|-------5-5-5-5-5-5-5-5-7-5-0-5-|
--0----2-------0h-2------|-------------------------------|


  Q    Q    E  S  S S S S S    Q    S S S S S S S S S S S S  
----------------------------|-------------------------------|
----------------------------|-------------------------------|
----------------------------|-------------------------------|
--------------------5-------|-------------------------------|
--0----2-------0h-2---0-0-0-|-------0-0---0---0---0-0-0-0-0-|


  Q    Q    E  S  S Q       Q    S S S S S S S S S S S S  
-------------------------|-------------------------------|
-------------------------|-------------------------------|
-------------------------|-------------------------------|
--------------------5----|-------5-5-5-5-5-5-5-5-7-5-0-5-|
--0----2-------0h-2------|-------------------------------|


  Q    Q    E  S  S S S S S    Q    S S S S S S S S S S S S  
----------------------------|-------------------------------|
----------------------------|-------------------------------|
----------------------------|-------------------------------|
--------------------5-------|-------------------------------|
--0----2-------0h-2---0-0-0-|-------0-0---0---0---0-0-0-0-0-|


   S S S S S S S S S S S S Q       W                 
--------------------------------|-------------------|
--------------------------------|-------------------|
--------------------------------|-------------------|
--------------------------------|-------------------|
--10-6-0-5-0-6-0-5-0-6-0-5-3----|-------------------|


   S S S S S S S S S S S S Q       W                 
--------------------------------|-------------------|
--------------------------------|-------------------|
--------------------------------|-------------------|
--------------------------------|-------------------|
--10-6-0-5-0-6-0-5-0-6-0-5-8----|-------------------|


  E.  S E  S S E   E  S S S S    E.  S E.  S S S S S S S E   
------------------------------|-----------------------------|
------------------------------|-----------------------------|
------------------------------|-----------------------------|
------------------------------|-----------------------------|
--3---3-3--3-3-3/--9--9-9-9-9-|--8---8-8---8-8-5-5-5-5-5-5--|


  E.  S E  S S E   E  S S S S    E  S S E  S S S S S S S S S S  
------------------------------|--------------------------------|
------------------------------|--------------------------------|
------------------------------|--------------------------------|
------------------------------|--------------------------------|
--3---3-3--3-3-3/--9--9-9-9-9-|--8--8-8-8--8-8-8-8-8-8-8-8-8-1-|


  E.  S E  S S E   E  S S S S    E.  S E.  S S S S S S S E   
------------------------------|-----------------------------|
------------------------------|-----------------------------|
------------------------------|-----------------------------|
------------------------------|-----------------------------|
--3---3-3--3-3-3/--9--9-9-9-9-|--8---8-8---8-8-5-5-5-5-5-5--|


  E.  S E  S S E   E  S S S S    E.  S E.  S S S S S S S S S  
------------------------------|------------------------------|
------------------------------|------------------------------|
------------------------------|------------------------------|
------------------------------|------------------------------|
--3---3-3--3-3-3/--9--9-9-9-9-|--8---8-8---8-8-8-8-8-8-8-8-0-|


   S S S S S S  S S S S S S  S S S S     S S S S S S  S S S S S S  S S S S  
-------------------------------------|-------------------------------------|
-------------------------------------|-------------------------------------|
-------------------------------------|-------------------------------------|
-------------------------------------|-------------------------------------|
--10-6-0-5-0-6-10-6-0-5-0-6-10-6-5-3-|--10-6-0-5-0-6-10-6-0-5-0-6-10-6-5-3-|


   S S S S S S  S S S S S S  S S S S     S S S S S S  S S S S S S  S S S S  
-------------------------------------|-------------------------------------|
-------------------------------------|-------------------------------------|
-------------------------------------|-------------------------------------|
-------------------------------------|-------------------------------------|
--10-6-0-5-0-6-10-6-0-5-0-6-10-6-5-3-|--10-6-0-5-0-6-10-6-0-5-0-6-10-6-5-3-|


  S S S S S E  S S S S S S S S S    S S S S S E  S S S S S S E.   
---------------------------------|-------------------------------|
---------------------------------|-------------------------------|
---------------------------------|-------------------------------|
---------------------------------|-------------------------------|
--2-2-2-2---2--2---2---2-2-2---0-|--2-2-2-2---2--2---2---2-2-0---|


  S S S S S E  S S S S S S S S S    S S S S S E  S S S S S S E.   
---------------------------------|-------------------------------|
---------------------------------|-------------------------------|
---------------------------------|-------------------------------|
---------------------------------|-------------------------------|
--2-2-2-2---2--2---2---2-2-2---0-|--2-2-2-2---2--2---2---2-2-0---|


  W                    S S S S S S S S S S S S Q       W                 
-------------------|--------------------------------|-------------------|
-------------------|--------------------------------|-------------------|
-------------------|--------------------------------|-------------------|
-------------------|--------------------------------|-------------------|
-------------------|--10-6-0-5-0-6-0-5-0-6-0-5-3----|-------------------|


  E.  S E  S S E   E  S S S S    E.  S E.  S S S S S S S E   
------------------------------|-----------------------------|
------------------------------|-----------------------------|
------------------------------|-----------------------------|
------------------------------|-----------------------------|
--3---3-3--3-3-3/--9--9-9-9-9-|--8---8-8---8-8-5-5-5-5-5-5--|


  E.  S E  S S E   E  S S S S    E  S S E  S S S S S S S S S S  
------------------------------|--------------------------------|
------------------------------|--------------------------------|
------------------------------|--------------------------------|
------------------------------|--------------------------------|
--3---3-3--3-3-3/--9--9-9-9-9-|--8--8-8-8--8-8-8-8-8-8-8-8-8-1-|


  E.  S E  S S E   E  S S S S    E.  S E.  S S S S S S S E   
------------------------------|-----------------------------|
------------------------------|-----------------------------|
------------------------------|-----------------------------|
------------------------------|-----------------------------|
--3---3-3--3-3-3/--9--9-9-9-9-|--8---8-8---8-8-5-5-5-5-5-5--|


  E.  S E  S S E   E  S S S S    E.  S E.  S S S S S S S S S  
------------------------------|------------------------------|
------------------------------|------------------------------|
------------------------------|------------------------------|
------------------------------|------------------------------|
--3---3-3--3-3-3/--9--9-9-9-9-|--8---8-8---8-8-8-8-8-8-8-8-0-|


  E.  S E  S S E   E  S S S S    E.  S E.  S S S S S S S E   
------------------------------|-----------------------------|
------------------------------|-----------------------------|
------------------------------|-----------------------------|
------------------------------|-----------------------------|
--3---3-3--3-3-3/--9--9-9-9-9-|--8---8-8---8-8-5-5-5-5-5-5--|


  E.  S E  S S E   E  S S S S    E  S S E  S S  S S S S S S S S  
------------------------------|---------------------------------|
------------------------------|---------------------------------|
------------------------------|---------------------------------|
------------------------------|---------------------------------|
--3---3-3--3-3-3/--9--9-9-9-9-|--8--8-8-8--8-8-10-6-0-5-0-6-5-0-|


  E.  S E  S S E   E  S S S S    E.  S E.  S S S S S S S E   
------------------------------|-----------------------------|
------------------------------|-----------------------------|
------------------------------|-----------------------------|
------------------------------|-----------------------------|
--3---3-3--3-3-3/--9--9-9-9-9-|--8---8-8---8-8-5-5-5-5-5-5--|


  E.  S E  S S E   E  S S S S    W                   W                 
------------------------------|-------------------|-------------------|
------------------------------|-------------------|-------------------|
------------------------------|-------------------|-------------------|
------------------------------|-------------------|-------------------|
--3---3-3--3-3-3/--9--9-9-9-9-|--8----------------|--L----------------|


                   

   S S S S S S S S S S S S Q       W                                          
--------------------------------|-------------------------------------------||
--------------------------------|-------------------------------------------||
--------------------------------|-------------------------------------------||
--------------------------------|-------------------------------------------||
--10-6-0-5-0-6-0-5-0-6-0-5-3----|-------------------------------------------||




Duration Legend
---------------
W - whole
H - half
Q - quarter
E - 8th
S - 16th
T - 32nd
X - 64th
. - note dotted
|-n-|  - n-tuplets


Tablature Legend
----------------
L - tied note
x - dead note
g - grace note
(n) - ghost note
> - accentuded note
NH - natural harmonic
AH - artificial harmonic
TH - tapped harmonic
SH - semi harmonic
PH - pitch harmonic
h - hammer on
p - pull off
b - bend
br - bendRelease
pb - preBend
pbr - preBendRelease
brb - bendReleaseBend
\n/ - tremolo bar dip
\n - tremolo bar dive
-/n - tremolo bar Release up
/n\ - tremolo bar inverted dip
/n - tremolo bar return
-\n - tremolo bar Release down
S - shift slide
s - legato slide
/ -  slide into from below or out of upwards
\ -  slide into from above or out of downwards
~ - vibrato
W - wide vibrato
tr - trill
TP - tremolo picking
T - tapping
S - slap
P - pop
< - fade in
^ - brush up
v - brush down

            
            
Suggest correction
Creating personal tab
Creating personal tab
You can edit any tab online and save it as your Personal.

You can edit, replace or remove any tab part or add personal notes – all changes will be seen only by you.

Personal tabs can be accessed anytime from any device, even offline.
Learn more »
Give kudos to tab author, rate the tab!
1 2 3 4 5
comments
print report bad tab
guest
You may want to rate the tab now too:
select rating
Wanna post a correction for this tab? Suggest correction