Oops, an error
Loading. Please wait.

Ugly bass

version 1
version 1

Whole song

Interactive

1,076 views 3 this week
no commentswrite comment
1 2 3 4 5
3 more votes to show rating
add to favorites
×
Save as Personal and add changes to this tab that will be seen only by you. Learn more ›
×
You can save this tab as Personal to edit and correct it or add notes. All changes will be seen only by you. Learn more »
launch autoscroll
font size
0
reset
guitar tuner
edit
Autoscroll
slow
fast
+/-
esc
set tempo
stop
Author
Band - Sevendust
Song - Ugly
Album - Next
Tuning - B,Gb,B,E

 Intro
|-------------------------------------------|
|-------------------------------------------|
|-------------------------------------------|
|-0-2-2-2-2-2-2h3-2~--0-2h3-2~--0-2h3-------|

Verse
|-----------------------------------------------|
|-----------------------------------------------|
|-----------------------------------------------|
|-0-2-2-2-2-2-2h3-2~--0-2h3-2~--0-2h3-2~--0-2-0-|

|-------------------------------------------------|
|-------------------------------------------------|
|-------------------------------------------------|
|-0-2-2-2-2-2-2h3-2~--0-2h3-2~--0-2h3-2~--0-222-0-|

PreChorus
|-------------------------------------------------------------|
|-------------------------------------------------------------|
|-------------------------------------------------------------|
|-000-000-000-000-000-0-0-0-0-0-0-000-000-000-000-000-0-000-0-|

Chorus(second chorus has some bass fill i cant figure out,so i just follow the guitar)
|--------------------------------------------------------------|
|--------------------------------------------------------------|
|--------------------------------------------------------------|
|-2-2-2-2-2-2-2-2-2/9-9-9-9-9-9-10-10-10-10-10-10-5-5--5-5-5-5-|


|-------------------------------------------------|
|-------------------------------------------------|
|-------------------------------------------------|
|-0-0-0-0-0-0-0-10-10-10-10-10-10-10-10-10-10/12~-|

Prechorus

Chorus

bridge/breakdown, hear i just let the guitars do what they do

Prechorus

Acoustic Bridge, thing, uh, just wait for these root notes, you'll hear 'em
|----------------------------------------------------|
|----------------------------------------------------|
|----------------------------------------------------|
|-0--------------------10----------------------------|

Chorus

Intro

            
            
Suggest correction
Creating personal tab
Creating personal tab
You can edit any tab online and save it as your Personal.

You can edit, replace or remove any tab part or add personal notes – all changes will be seen only by you.

Personal tabs can be accessed anytime from any device, even offline.
Learn more »
Give kudos to tab author, rate the tab!
1 2 3 4 5
comments
print report bad tab
guest
You may want to rate the tab now too:
select rating
Wanna post a correction for this tab? Suggest correction