Oops, an error
Loading. Please wait.
We have an official Pretty Vacant tab made by UG professional guitarists. Check out the tab »
×
71,710 views 111 this week
11 commentsread comments
1 2 3 4 5
x 52
add to favorites
×
Save as Personal and add changes to this tab that will be seen only by you. Learn more ›
×
You can save this tab as Personal to edit and correct it or add notes. All changes will be seen only by you. Learn more »
launch autoscroll
font size
0
reset
how to read this tab
guitar tuner
backing track
0:00
0:00
edit
Autoscroll
slow
fast
+/-
esc
set tempo
stop
Tabbed by George Ireland

 [Intro]
e|---------------------------------|
B|---------------------------------|
G|--------2--2---------------(x16)-|
D|--------------------2--2---------|
A|--0--0--------0--0---------------|
E|---------------------------------|

 [Verse]
e|---------------------------------------------|
B|---------------------------------------------|
G|-----------7-7----------------9-9-9----------|
D|-7-7--5-5--7-7--7--7-7-7-5----9-9-9----------|
A|-7-7--5-5--5-5--7--7-7-7-5----7-7-7----------|
E|-5-5--3-3-------5--5-5-5-3-------------------|

 [Bridge Part 1]
e|------------------------------------------|
B|--------------------------12--------------|
G|-9-9--------------9-11^12----12-11p9----9-|
D|-9-9---------9-11--------------------11---|
A|-7-7-----9s11-----------------------------|
E|------------------------------------------|

 [Bridge Part 2]
e|------------------------------------------|
B|------------------------------------------|
G|-2-2----4b5r4-4p2---4b5r4--4p2------------|
D|-2-2--------------4------------4----------|
A|-0-0--------------------------------------|
E|------------------------------------------|

 [Chorus]
e|------------------------------------------------------------------|
B|------------------------------------------------------------------|
G|--7-7-7-7-7-7---5-5-5-5-5-5----2-2---------2-2-2--2--------2-2-2--|
D|--7-7-7-7-7-7---5-5-5-5-5-5----2-2---------2-2-2--2--------2-2-2--|
A|--5-5-5-5-5-5---3-3-3-3-3-3----0-0-3b-0----0-0-0--0-3b-0---0-0-0--|
E|-----------------------------------------3---------------3--------|

 [Verse]
e|---------------------------------------------|
B|---------------------------------------------|
G|-----------7-7----------------9-9-9----------|
D|-7-7--5-5--7-7--7--7-7-7-5----9-9-9----------|
A|-7-7--5-5--5-5--7--7-7-7-5----7-7-7----------|
E|-5-5--3-3-------5--5-5-5-3-------------------|

 [Bridge 2]
e|-----------------------------------------|
B|--------------8-8------------------------|
G|-9-9-9---7~9-7---7---~7-9-7-9-7-9-7-9~7--| Let it ring
D|-9-9-9------------~8---------------------|
A|-7-7-7-----------------------------------|
E|-----------------------------------------|

 [Chorus]
e|------------------------------------------------------------------|
B|------------------------------------------------------------------|
G|--7-7-7-7-7-7---5-5-5-5-5-5----2-2---------2-2-2--2--------2-2-2--|
D|--7-7-7-7-7-7---5-5-5-5-5-5----2-2---------2-2-2--2--------2-2-2--|
A|--5-5-5-5-5-5---3-3-3-3-3-3----0-0-3b-0----0-0-0--0-3b-0---0-0-0--|
E|-----------------------------------------3---------------3--------|

 [Verse]
e|---------------------------------------------|
B|---------------------------------------------|
G|-----------7-7----------------9-9-9----------|
D|-7-7--5-5--7-7--7--7-7-7-5----9-9-9----------|
A|-7-7--5-5--5-5--7--7-7-7-5----7-7-7----------|
E|-5-5--3-3-------5--5-5-5-3-------------------|


 [Bridge 1]
e|------------------------------------------|
B|------------------------------------------|
G|-9-9-9--------~5-7-5--------5~7-7--5-5----|
D|-9-9-9------5-7-----6~6--------------6~6--|
A|-7-7-7----5-7-----------------------------|
E|------------------------------------------|

 [Chorus]
e|------------------------------------------------------------|
B|------------------------------------------------------------|
G|--7-7-7-7-7-7---5-5-5-5-5-5---------------------------------|
D|--7-7-7-7-7-7---5-5-5-5-5-5---7-7-7-7-7-7-7-7-7-7-7-7-------|
A|--5-5-5-5-5-5---3-3-3-3-3-3---7-7-7-7-7-7-7-7-7-7-7-7-------|
E|------------------------------5-5-5-5-5-5-5-5-5-5-5-5-------|
were pretty, pretty vacant

 [Solo]
e|-----------------|
B|---------8-8-----|
G|----7~9-7---7----|
D|-------------~8--|
A|-----------------|
E|-----------------|

 And play the Chorus as the Outro.
e|------------------------------------------------------------|
B|------------------------------------------------------------|
G|--7-7-7-7-7-7---5-5-5-5-5-5---------------------------------|
D|--7-7-7-7-7-7---5-5-5-5-5-5---7-7-7-7-7-7-7-7-7-7-7-7-------|
A|--5-5-5-5-5-5---3-3-3-3-3-3---7-7-7-7-7-7-7-7-7-7-7-7-------|
E|------------------------------5-5-5-5-5-5-5-5-5-5-5-5-------|

*....We don't care!!

 [Outro]
e|------------|
B|------------|
G|------------|
D|--7--7-7----|
A|--7--7-7----|
E|--5--5-5----|

This is as close as I can get it from listening to the track and the live track, but I 
it is very accurate! So please give me a good rateing!

************************************

| ~  Vibrato

************************************

            
            
Suggest correction
Creating personal tab
Creating personal tab
You can edit any tab online and save it as your Personal.

You can edit, replace or remove any tab part or add personal notes – all changes will be seen only by you.

Personal tabs can be accessed anytime from any device, even offline.
Learn more »
comments
print report bad tab
11 comments total. Showing first comments.
+1 reply
buckykatt323 10 Oct 21, 2006 07:39 AM

great tab man

+2 reply
guitar_gczr 51 May 31, 2007 01:32 PM

this is an awesome by the Sex Pistols

+4 reply
###!!jack!!### 59 Jun 19, 2007 02:13 AM

gr8 tab!! i think the intro is palm muted , thats how i play it but im shit so...

guest
You may want to rate the tab now too:
select rating
Wanna post a correction for this tab? Suggest correction