Oops, an error
Loading. Please wait.

The Light That Blinds bass

version 1
version 1
11,301 views 1 this week
12 commentsread comments
1 2 3 4 5
x 14
add to favorites
×
Save as Personal and add changes to this tab that will be seen only by you. Learn more ›
×
You can save this tab as Personal to edit and correct it or add notes. All changes will be seen only by you. Learn more »
launch autoscroll
font size
0
reset
guitar tuner
backing track
0:00
0:00
edit
Autoscroll
slow
fast
+/-
esc
set tempo
stop
Author
Difficulty
Intro:    x1
G---------|
D---------|
A------5~-|
D-0~---0~-|

G---------------------------------|
D---------------------------------|
A-1-----------------1-1---1-3-4---|
D---6-4-6-4-4-6-7-0-----0-------6-|

G-------------|
D-------------|
A-1--1--1-----|
D---------3-5-|

Verse x2
G-------------------------------------------------|
D---------------------2-1-1-----------------------|
A-1---------1---------------5-3-----------5-4-3-1-|  x1
D---0-1-2-4---0-1-2-4-----------3-5-5-6-7---------|

G--------------------------------------------|
D--------------------------------------------|
A-1---------1----------------1---------------|  x1
D---0-1-2-4---0-1-2-4--5-5-5---5-3-1-1-1-3-5-|

Pre Chorus   x1
G----------------------|
D----------------------|
A-------1--------------|
D-5-5-5---5-3-1-1-1-0~-|

G---------------------|
D---------------------|
A-------1-------------|
D-5-5-5---5-3-1-1-1-3-|

G-------------------|
D-------------------|
A-------1-----------|
D-5-5-5---5-3-1-3-5-|

Chorus 1   x1         (part 1)
G----------------------------3753---------------5-------------7-6-5-4--|
D--------------------------35----53------3-3----------3\5-5--5-5-5-5-5-|
A-1-1---------------3-3-5-3--------531-1-----1\3-3333------------------|
D-----0-00000000000----------------------------------------------------|
                      (part 2)
G------------------------------------------------------3-5------------|
D-------------------------------3-2--------1-3-------------7-5-555555-|
A-1-1---------------3-3-5-55555-----5-1-11-----5-3-333----------------|
D-----0-00000000000---------------------------------------------------|

G---------|
D---------|
A---------|
D-5-0-0-3-|

Verse  x2
Pre Chorus x1

Chorus 2  (part 1)
G----------------------------3753---------------5-----------------------|
D--------------------------35----53------3-3----------3\5-5----5-3------|
A-1-----------------3-3-5-3--------531-1-----1\3-3333---------------5-3-|
D-----0-00000000000-----------------------------------------------------|

Chorus      (part 2)
Same as the first chorus

Bridge(part 1)
G--------------------------------|
D--------------------------------|
A----------3-2-------------------|  x4
D-6-5-0000-----0000-6-5-0000-3-6-|

Bridge (part 2)
G------------------------|
D------------------------|
A-1~---4~------1~--------|
D----------5-3-----3~-5~-|

G--------------------------------|
D--------------------------------|
A-0-00-321----321---321----------| x2
D----------6------5-----3-3333-5-|

G----------------------------------------|
D----------------------------3-3-1-3-1---|
A-1111111\4-444444----------1----------3-|
D-----------------1-11111--1-------------|

G---------------------------------4---3------3-3-4-5-5-|
D-----3---3---------7---6-----1-1---1---1\3-3----------|
A-1-1---1---1-1\4-4---4---4-4--------------------------|
D------------------------------------------------------|

G------------------------------------|
D------------------------------------|
A-1-11111-\4-44444-------------------|
D------------------1-111111-\3-33333-|

G------------------------------|
D------------------------------|
A-1-11111-\4-44444-------------|
D------------------1-1111111\3-|

Bridge (part 3)
G---------------------------------|
D---------------------------------|
A------3--------------------------|
D-7-00---00-5-00-5-7-000000000000-|

G--------------------------------------|
D--------------------------------------|
A------3-----------------3-5-3---------|
D-7-00---00-5-00-5-7-000-------5-3-5-3-|

G---------------------------------|
D---------------------------------|
A------3--------------------------|
D-7-00---00-5-00-5-7-000000000000-|

G----------------------------------|
D----------------------------------|
A------3-------------3-5-3---------|
D-7-00---00-5-00-5-7-------5-3-5-3-|

G---------------------------------|
D---------------------------------|
A-3-5-3-------------3-5-3---------|
D-------5-3-5-7-5-3-------5-3-5-3-|

G----------------------|
D----------------------|
A-3-5-3------------3-5-|
D-------5-3-5-7-0------|

Chorus x1

Ending
G----------------------------------|
D----------------------------------|
A-3-5-3----------3-5-3-------------|  x3
D-------5-3-5-3--------5-3-5-7-5-3-|

G---------------|
D---------------|
A-3-5-3---------|
D-------5-3-5-3-|

G-------------------|
D-------------------|
A-3-5-3-------------|
D-------5-3-5-7-3-0-|

            
            
Suggest correction
Creating personal tab
Creating personal tab
You can edit any tab online and save it as your Personal.

You can edit, replace or remove any tab part or add personal notes – all changes will be seen only by you.

Personal tabs can be accessed anytime from any device, even offline.
Learn more »
comments
print report bad tab
12 comments total. Showing first comments.
+2 reply
Centurion 104 Mar 20, 2007 04:12 PM

Props for an awesome tab!

-1 reply
Centurion 104 Mar 20, 2007 04:20 PM

Pretty sure Shadows Fall play in C though........

0 reply
JChrist521 113 Apr 11, 2007 02:48 PM

i think its actually full step down (D standard) but nice tab

guest
You may want to rate the tab now too:
select rating
Wanna post a correction for this tab? Suggest correction