Oops, an error
Loading. Please wait.

The Light That Blinds bass

version 2
version 2
3,628 views 1 this week
1 commentread comment
1 2 3 4 5
x 3
add to favorites
×
Save as Personal and add changes to this tab that will be seen only by you. Learn more ›
×
You can save this tab as Personal to edit and correct it or add notes. All changes will be seen only by you. Learn more »
launch autoscroll
font size
0
reset
guitar tuner
backing track
0:00
0:00
edit
Autoscroll
slow
fast
+/-
esc
set tempo
stop
Beginning with acoustic guitar
|-------------------------------|
|.-------6------8--------------.|
|.-3---------------------------.|
|-------------------------------|

|-------------------------------|
|-------------------------------|
|-------------------------------|
|--0------------0---------------|

0:45 secs
X4
|--------------------------------------|
|.------------------------------------.|
|.------10---11------------4---3------.|
|--10-8----8---8-6-8---6-4---4---8-6---|

|--------------------------------|
|--------------------------------|
|--------------------------------|
|--0---0---0---0------0-2--------|

Verse
X2
|------------------------------------|
|.-----------------------------------|
|.-----------------------------------|
|--7-0-0-0-5-0-0-0-7-0-0-0-5-0-0-0---|

|--------------------------------|
|---------------------------2-3--|
|-6-----5-----3---------1-3------|
|---0-0---0-0---0-0-0-0----------|

|-----------------------------------|
|-----------------------------------|
|-----------------------------------|
|-7-0-0-0-5-0-0-0-7-0-0-0-5-0-0-0---|

|------------------------------------|
|----------------------------11/12--.|
|-----8---8/10---5---6---5----------.|
|-0-0---0------0---0---0---0---------|
X2
|-------------------------------------|
|.----------------------------11/12--.|
|.-----8---8/10---5---6---5----------.|
|-0-0---0------0---0---0---0----------|

Chorus
G---------------------------3753-----------------------------7-6-5-4--|
D-------------------------35----53--------3----------3\5-5--5-5-5-5-5-|
A----------------------5-3--------531-1-----1\3----3------------------|
D---8------0----------------------------------------------------------|


G------------------------------------------------------3-5------------|
D-------------------------------3-2-0------1-3-------------7-5-555----|
A-------------------3-3-5-55555-------1-11-----5-3-333----------------|
D---8------0----------------------------------------------------------|


Repeat the verse and chorus again just like the first time.


Bridge 
X4
|----------------------------------------|
|.---------------------------------------|
|.---------------------------------------|
|--5-1-00000-3-1-00000-5-1-0000000--5--7-|

|--------------------------------------------|
|--------------------------------------------|
|------------7-6-----------------------------|
|-7-6-0----------0------7-6-0------5---8-----|

X4
|--------------------------------------------|
|.3--3----3-1-----1--1-0----0---0-1--1---1--.|
|.------------------------------------------.|
|--------------------------------------------|

Heavy bit
X4
|------------------------------------------------|
|------------------------------------------------|
|-------------------------------------5-4--------|
|--3---000-000-000-000-----5-----7-6-4----6--4---|

|-----------------------|
|-----------------------|
|--------5-4------------|
|--7-6-4----6--4--------|

Then repeat the chorus
 And finally 
Ending
X7                 then on 8
|----------------|-------------------------|
|.--------------.|-------------------------|
|.--------10----.|--------10---------------|
|-10--8-----8----|--10--8----8--10---8--0--|

            
            
Suggest correction
Creating personal tab
Creating personal tab
You can edit any tab online and save it as your Personal.

You can edit, replace or remove any tab part or add personal notes – all changes will be seen only by you.

Personal tabs can be accessed anytime from any device, even offline.
Learn more »
Give kudos to tab author, rate the tab!
1 2 3 4 5
comments
print report bad tab
1 comment total.
0 reply
corrda00 807 Jun 24, 2009 05:50 AM

This is the guitar part.

guest
You may want to rate the tab now too:
select rating
Wanna post a correction for this tab? Suggest correction