Oops, an error
Loading. Please wait.

Angel bass

version 2
version 2

Whole song

Interactive

by Shaggy
5,419 views 3 this week
no commentswrite comment
1 2 3 4 5
x 4
add to favorites
×
Save as Personal and add changes to this tab that will be seen only by you. Learn more ›
×
You can save this tab as Personal to edit and correct it or add notes. All changes will be seen only by you. Learn more »
launch autoscroll
font size
0
reset
guitar tuner
edit
Autoscroll
slow
fast
+/-
esc
set tempo
stop
Author
+++++++++++++++++
| Shaggy- Angel |
+++++++++++++++++



"Closer than my peeps you are to me, baby..."


Tuning: EADG



Intro
1.
G|-----------------------------------------------------------------------------|
D|-----------------------------------------------------------------------------|
A|---------3-3x---5h7p5-5x----0233332200---------3-3x---5h7p5-5x----0233332200-|--x2
E|-3-3x----------------------------------3-3x----------------------------------|

Chorus
"Girl you're my angel..."
2.
G|-----------------------------------------------------------------------------|
D|-----------------------------------------------------------------------------|
A|---------3-3x---5h7p5-5x----0233332200---------3-3x---5h7p5-5x----0233332200-|--x2
E|-3-3x----------------------------------3-3x----------------------------------|

Verse
"Life is one big party when you're still young..."
3.
G|-----------------------------------------------------------------------------|
D|-----------------------------------------------------------------------------|
A|---------3-3x---5h7p5-5x----0233332200---------3-3x---5h7p5-5x----0233332200-|--x2
E|-3-3x----------------------------------3-3x----------------------------------|

Chorus
"Girl you're my angel..."
4.
G|-----------------------------------------------------------------------------|
D|-----------------------------------------------------------------------------|
A|---------3-3x---5h7p5-5x----0233332200---------3-3x---5h7p5-5x----0233332200-|--x2
E|-3-3x----------------------------------3-3x----------------------------------|

Verse
"You're a queen and as so you should be treated..."
5.
G|-----------------------------------------------------------------------------|
D|-----------------------------------------------------------------------------|
A|---------3-3x---5h7p5-5x----0233332200---------3-3x---5h7p5-5x----0233332200-|--x2
E|-3-3x----------------------------------3-3x----------------------------------|

Chorus
"Girl you're my angel..."
6.
G|-----------------------------------------------------------------------------|
D|-----------------------------------------------------------------------------|
A|---------3-3x---5h7p5-5x----0233332200---------3-3x---5h7p5-5x----0233332200-|--x2
E|-3-3x----------------------------------3-3x----------------------------------|

Bridge
"Girl in spite of my behavior..."
7.
G|-----------------------------------------------------------------------------|
D|-----------------------------------------------------------------------------|
A|---------3-3x---5h7p5-5x----0233332200---------3-3x---5h7p5-5x----0233332200-|
E|-3-3x----------------------------------3-3x----------------------------------|

"Girl in spite of my behavior..."
8.
G|-----------------------------------------------------------------------------|
D|-----------------------------------------------------------------------------|
A|---------3-3x---5h7p5-5x----0233332200---------3-3x---5h7p5-5x---------------|
E|-3-3x----------------------------------3-3x----------------------------------|

Verse
"Life is one big party when you're still young..."
9.
G|-----------------------------------------------------------------------------|
D|-----------------------------------------------------------------------------|
A|---------3-3x---5h7p5-5x----0233332200---------3-3x---5h7p5-5x----0233332200-|--x2
E|-3-3x----------------------------------3-3x----------------------------------|

Chorus
"Girl you're my angel..."
10.
G|-----------------------------------------------------------------------------|
D|-----------------------------------------------------------------------------|
A|---------3-3x---5h7p5-5x----0233332200---------3-3x---5h7p5-5x----0233332200-|--x4
E|-3-3x----------------------------------3-3x----------------------------------|

Outro
11.
G|-----------------------------------------------|
D|-----------------------------------------------|
A|---------3-3x---5h7p5-5x----0233332200---------|
E|-3-3x----------------------------------3-3x----|


Please rate thanks!!


Lyrics:

Girl, you're my angel, you're my darling angel 
Closer than my peeps you are to me, baby 
Shorty, you're my angel, you're my darling angel 
Girl, you're my friend when I'm in need, lady

Life is one big party when you're still young 
But who's gonna have your back when it's all done 
It's all good when you're little, you have pure fun 
Can't be a fool, son, what about the long run 
Looking back Shorty always mention 
Said me not giving her much attention 
She was there through my incarceration 
I want to show the nation my appreciation

You're a queen and as so you should be treated 
Though you never get the lovin' that you needed 
Could have left, but I called and you heeded 
Begged and I pleaded, mission completed 
Mama said that I and I dissed the program 
Not the type to mess around with her emotion 
But the feeling that I have for you is so strong 
Been together so long and this could never be wrong 

Uh, uh Girl, in spite of my behavior, said I'm your savior 
(You must be sent from up above) 
And you appear to me so tender, say girl I surrender 
(Thanks for giving me your love) 



+++++++++++++++++++++++++++++++++
| Raileff                       |
| Underground__Dora@Hotmail.Com |
+++++++++++++++++++++++++++++++++

            
            
Suggest correction
Creating personal tab
Creating personal tab
You can edit any tab online and save it as your Personal.

You can edit, replace or remove any tab part or add personal notes – all changes will be seen only by you.

Personal tabs can be accessed anytime from any device, even offline.
Learn more »
comments
print report bad tab
guest
You may want to rate the tab now too:
select rating
Wanna post a correction for this tab? Suggest correction